Guitaretab - guitar tabs
Song name
# A B C D E F G H I J K L M N O P Q R S T U V W X Y Z

Tad Morose - Anubis tab

-------------------------------------------------------------------------------
			     SONG NAME - Band Name
-------------------------------------------------------------------------------
Tabbed by:David

Email:d_tranberg@hotmail.com

Tuning:D

intro:
e|---------------------------------------------------------------------------|
B|---------------------------------------------------------------------------|
G|---------------------------------------------------------------------------|
D|-----------------------------------------6h7p6-----------------------------|
A|-------------7p8-----7p8------------5-7-8------8-7-5-7-8-------------7p8---|
E|-0--0-0-0-0------00------00-0--0-0------------------------0--0-0-0-0-------|

e|---------------------------------------------------------------------------|
B|---------------------------------------------------------------------------|
G|---------------------------------------------------------------------------|
D|--------------------------7-7--10------------------------------------------|
A|----7p8----78-------------5-5--8-------------7p8----7p8-----------5-7-8----|
E|-00-----00----000-0-0-0-0----------0-0-0-0-0-----00-----000-0-0-0----------|

e|---------------------------------------------------------------------------|
B|---------------------------------------------------------------------------|
G|---------------------------------------------------------------------------|
D|--6h7p6-----6-7-8-------------7-7--10--------------------------------------|
A|--------8-7-------------------5-5--8---------------------------------------|
E|-------------------0-0-0-0-0-----------------------------------------------|
[ Tab from: http://www.guitaretab.com/t/tad-morose/63391.html ]
verse:
e|---------------------------------------------------------------------------|
B|---------------------------------------------------------------------------|
G|---------------------------------------------------------------------------|
D|--9-9-10----10------10--------------9-9-10------------------------7-7-10---|
A|--7-7-8-----8-------8---------------7-7-8-------------------------5-5-8----|
E|---------00----0000----000000000000--------0000000000000000000000----------|

chorus:
e|---------------------------------------------------------------------------|
B|---------------------------------------------------------------------------|
G|---------------------------------------------------------------------------|
D|---------10------------10-12-10-7-9------10----10--9-9------10-12-10-7-9---|
A|--7------8---88-7------8--10-8--5-7---77-8---88--88--7---77-8--10-8-5--7---|
E|--5---55--------5---55-----------------------------------------------------|

e|---------------------------------------------------------------------------|
B|---------------------------------------------------------------------------|
G|---------------------------------------------------------------------------|
D|--------------9-9-9----2-2-3-5---------------------------------------------|
A|-----7h8p7------7-7-8--2-2-3-5---------------------------------------------|
E|-0-0-------0-0---------0-0-1-3---------------------------------------------|

e|----------------------------------------------------------------------------|
B|----------------------------------------------------------------------------|
G|----------------------------------------------------------------------------|
D|-------------7-6h7p6------10-9----------------------------------------------|
A|------7p8------------8-7----8-8---------------------------------------------|
E|-0-0------0-0---------------------------------------------------------------|

| h  hammer-on
| p  pull-off

===============================================================================
Anubis chords by Tad Morose