Guitaretab - guitar tabs
Song name
# A B C D E F G H I J K L M N O P Q R S T U V W X Y Z

Tad - Red Eye Angel tab

-------------------------------------------------------------------------------
                                RED EYE ANGEL  Tad
-------------------------------------------------------------------------------

Tabbed by: brian_s
Email: branimir.sremec@kc.t-com.hr

 
Intro/Verse riff:
e-------------------------------------------------|
B--------0-0-0----0-0-0-0-------------------------|
G---2-2--2-2-2----4-4-4-4----0-0-0-0-0-0-0-0-0----|
D---2-2--2-2-2----4-4-4-4----5-5-5-5-5-5-5-5-5----|
A---0-0--0-0-0----2-2-2-2----5-5-5-5-5-5-5-5-5----|
E----------------------------3-3-3-3-3-3-3-3-3----|

[ Tab from: http://www.guitaretab.com/t/tad/93199.html ]
Chorus riff:
e--------------------------------------------------------------|
B---0-0-0-0-0-0-0-0--------------------------------------------|
G---5-5-5-5-5-5-5-5----0-0-0-0-0-0-0-0-0----0-0-0-0-0-0-0-0----|
D---5-5-5-5-5-5-5-5----3-3-3-3-3-3-3-3-3----5-5-5-5-5-5-5-5----|
A---3-3-3-3-3-3-3-3----3-3-3-3-3-3-3-3-3----5-5-5-5-5-5-5-5----|
E----------------------1-1-1-1-1-1-1-1-1----3-3-3-3-3-3-3-3----|


Solo:  01:14  01:50     just play it over and over
e---------------------------------------------------------------------|
B---------8-------------------8-------------------8-------------------|
G----9------9---7-5---7-9-------9---7-5---7-9-------9---7-5---7-9-----|
D---------------------------------------------------------------------|
A---------------------------------------------------------------------|
E---------------------------------------------------------------------|




SONG ORDER:

INTRO:
Intro/Verse riff          4x

VERSE 1: 
Intro/Verse riff          5x

CHORUS:
Chorus riff               2x

VERSE 2:
Intro/Verse riff          6x

CHORUS(solo starts here):
Chorus riff               4x

OUTRO:
Chorus riff               2x
Intro/Verse riff          4x
Related for Red Eye Angel tab