Guitaretab - guitar tabs
Song name
# A B C D E F G H I J K L M N O P Q R S T U V W X Y Z

Tad - Glue Machine tab

TAD
Song:  Glue Machine
Album: Saltlick
Tabbed by Anthony DePiano on August 15, 2007

Tuning: Standard EADGBe

One of the few great overlooked bands.  Even Kurt
Cobain loved them.  They're the only band qualified
to chainsaw beer cans and slam 50 lb sledgehammers.

SOFT INTRO

   C                  D                        Or
e--0--0-0-0-0--0-0--------------------------  -0-|
B--1--1-1-1-1--1-1----3--3-3-3-3--3-3-3-----  -3-|
G--0--0-0-0-0--0-0----2--2-2-2-2--2-2-2-----  -2-|
D--2--2-2-2-2--2-2----4--4-4-4-4--4-4-4-----  -0-|
A--3--3-3-3-3--3-3----5--5-5-5-5--5-5-5-----  ---|
E-------------------------------------------  ---|

   A            B                B C
e--0--0-0-0-0-0---0-0-0--0-0-0----------------------|
B--2--2-2-2-2-2-4-2-2-2--2-2-2-2-4-5-5--5-5-5-5-5---|
G--2--2-2-2-2-2-4-2-2-2--2-2-2-2-4-5-5--5-5-5-5-5---|
D--2--2-2-2-2-2-4-2-2-2--2-2-2-2-4-5-5--5-5-5-5-5---|
A--0--0-0-0-0-0-2-0-0-0--0-0-0-0-2-3-3--3-3-3-3-3---|
E---------------------------------------------------|

   D
e-----------------|
B--7--7-7-7-7-7---|
G--7--7-7-7-7-7---|
D--7--7-7-7-7-7---|
A--5--5-5-5-5-5---|
E-----------------|

Repeat A A A A A A B A A A A A A B C C C C C D D D D D
[ Tab from: http://www.guitaretab.com/t/tad/94624.html ]
MAIN VERSE
   B      C B    C  B      D
e------------------------------|----|
B------------------------------|----| Play 8 times
G--4--4-4-5-4-4--5--4-4-4--7-7-|----|
D--4--4-4-5-4-4--5--4-4-4--7-7-|----|
A--2--2-2-3-2-2--3--2-2-2--5-5-|----|
E------------------------------|----|

GUITAR LICK
   C#        D# C# E  C#       G#
e-------------------------------------|  Play 4
B-------------------------------------|  times
G------------------------------13-13--|
D--11--11-11-13-11-14-11-11-11--------|
A-------------------------------------|
E-------------------------------------|

CHORUS
   E         C#
e----------------------|
B----------------------|
G----------------------| Play twice
D----------------------|
A--7-7~~~----11-11-11--|
E--0-0~~~-----9--9--9--|

   C#        D# C# E  C#       G#
e-------------------------------------|  Play 4
B-------------------------------------|  times
G------------------------------13-13--|
D--11--11-11-13-11-14-11-11-11--------|
A-------------------------------------|
E-------------------------------------|


   E         C#
e----------------------|
B----------------------|
G----------------------| Play 4 times
D----------------------|
A--7-7~~~----11-11-11--|
E--0-0~~~-----9--9--9--|

Repeat MAIN VERSE and the GUITAR LICK and the CHORUS


Lyrics:

Talking shit all night
Talking shit all day
Youíre a poor man
But youíre rich in dirt

Youíre a poor man
Youíre a poor man
But youíre rich in dirt

Diiiiirrrrtttt
Youíre a poor man
Donít you talk to me that way
Related for Glue Machine tab