Guitaretab - guitar tabs
Song name
# A B C D E F G H I J K L M N O P Q R S T U V W X Y Z

Tad - Axe To Grind tab

TAD
Song: Axe to Grind
Album: Salt Lick
Tabbed by Anthony DePiano on August 18, 2007

Tuning: Standard EADGBe

~ = vibrato
<> = artificial harmonic


   G
e--15~~~~~~~~~~~-----------------------|
B--------------------------------------|
G--------------------------------------|
D--------------------------------------|
A--------------------------------------|
E------------<3>-----------------------|
|
|    Same thing (G)
e--------------------------------------|
B--------------------------------------|
G--------------------------------------|
D---<5>~~~~----------------------------|
A--------------------------------------|
E--------------<3>---------------------|

VERSE
   G F#
e-------------------------|------------------------|
B-------------------------|------------------------|
G-------------------------|------------------------|
D-------------------------|------------------------|
A--5-4--4-4-4--4-4-4--4-4-|-5-4--4-4-4--4-4-4--4-4-|
E--3-2--2-2-2--2-2-2--2-2-|-3-2--2-2-2--2-2-2--2-2-|
You can mute the F# chords with your fingers when
you want to get the harmonic sounds heard in the song.
[ Tab from: http://www.guitaretab.com/t/tad/94762.html ]
   F#
e--14~~~~~~~---------------------------|
B--------------------------------------|
G--------------------------------------|
D--------------------------------------|
A--------------------------------------|
E--------------------------------------|
|
|    Same thing (F#)  different way to play it
|    Guitar I
e--------------------------------------|
B--------------------------------------|
G--------------------------------------|
D--<4>~~~~~~---------------------------|
A--------------------------------------|
E--------------------------------------|
|
|  C B
e-------------------------|------------------------|
B-------------------------|------------------------|
G-------------------------|------------------------|
D--5-4--4-4-4--4-4-4--4-4-|-5-4--4-4-4--4-4-4--4-4-|
A--3-2--2-2-2--2-2-2--2-2-|-3-2--2-2-2--2-2-2--2-2-|
E-------------------------|------------------------|
   Palm mute these chords

   B     C   D
e--------------------------------------|
B--------------------------------------|
G--4-----5---7-------------------------|
D--4-----5---7-------------------------|
A--2-----3---5-------------------------|
E--------------------------------------|

Just repeat these movements for what the song calls for.
Related for Axe To Grind tab