Guitaretab - guitar tabs
Song name
# A B C D E F G H I J K L M N O P Q R S T U V W X Y Z

Tad - High On The Hog tab

TAD
Song: High On The Hog
Album: Salt Lick
Tabbed by Anthony DePiano on August 18, 2007

~ = vibrato
/ = slide
<> = artificial harmonic

Tuning: Standard EADGBe

   C  G   D
e--------------------------------------|
B--------------------------------------|
G--5------7----------------------------|
D--5--5---7----------------------------|
A--3--5---5----------------------------|
E-----3--------------------------------|


e--------------------|---------------------|
B--------------------|---------------------|
G--------------------|---------------------|
D--------------------|---------------------|
A--------------5p4p0-|--------------5p4p0--|
E--0-0-3-0-2-0-------|--0-0-3-0-2-0--------|

e--------------------|---------------------|
B--------------------|---------------------|
G--------------------|---------------------|
D--------------------|---------------------|
A--------------5p4p0-|--------------5p4p0--|
E--0-0-3-0-2-0-------|--0-0-3-0-2-0--------|

   C   D                  ????????????
e----------------------------------------|
B--------------------------8p6---8p6-----|
G--5~--7-/5--5/7-7--7-/5-------7-----7---|
D--5~--7-/5--5/7-7--7-/5-----------------|
A----------------------------------------|
E----------------------------------------|

e--------------------|---------------------|
B--------------------|---------------------|
G--------------------|---------------------|
D--------------------|---------------------|
A--------------5p4p0-|--------------5p4p0--|
E--0-0-3-0-2-0-------|--0-0-3-0-2-0--------|
[ Tab from: http://www.guitaretab.com/t/tad/94786.html ]
e--------------------|---------------------|
B--------------------|---------------------|
G--------------------|---------------------|
D--------------------|---------------------|
A--------------5p4p0-|--------------5p4p0--|
E--0-0-3-0-2-0-------|--0-0-3-0-2-0--------|

e---------------------------------|
B---------------------------------|
G--5~--7-/5--5/7-7--7--7-/5-------|
D--5~--7-/5--5/7-7--7--7-/5-------|
A---------------------------------|
E---------------------------------|

e--------------------|---------------------|
B--------------------|---------------------|
G--------------------|---------------------|
D--------------------|---------------------|
A--------------5p4p0-|--------------5p4p0--|
E--0-0-3-0-2-0-------|--0-0-3-0-2-0--------|

e--------------------|---------------------|
B--------------------|---------------------|
G--------------------|---------------------|
D--------------------|---------------------|
A--------------5p4p0-|--------------5p4p0--|
E--0-0-3-0-2-0-------|--0-0-3-0-2-0--------|

   C  G   D
e--------------------------------------|
B--------------------------------------|
G--5------7----------------------------|
D--5--5---7----------------------------|
A--3--5---5----------------------------|
E-----3--------------------------------|

   F# G  G# A  A# B  C  C#
e--2--3--4--5--6--7--8--9------|
B------------------------------|
G------------------------------|
D------------------------------|
A------------------------------|
E------------------------------|

OR

e------------------------------------------------|
B--7-----8-----9-----10----11----12----13----14--|
G--9b---10b---11b----12b---13b---14b---15b---16b-|
D------------------------------------------------|
A------------------------------------------------|
E------------------------------------------------|
Related for High On The Hog tab
Advertisement will be closed in 10 seconds