Guitaretab - guitar tabs
Song name
# A B C D E F G H I J K L M N O P Q R S T U V W X Y Z

Tad - Satans Chainsaw tab

-------------------------------------------------------------------------------
                              SATAN'S CHAINSAW  Tad
-------------------------------------------------------------------------------

Tabbed by: brian_s
Email: branimir.sremec@kc.t-com.hr


INTRO:
Part 1
D#------------------------------------------|
A#------------12-------12--------14-14-12---|
F#------------12-------12--------14-14-12---|
C#---14-14-14----14-14----14-14-------------|
G#------------------------------------------|
D#------------------------------------------|
     ....................................  

D#-----------------------------------------------|
A#----------12----------12-----------------------|
F#----------12----------12-----------------------|
C#----14-14----14-14-14----14-14-13--13-13-14---|
G#-----------------------------------------------|
D#-----------------------------------------------|
      ........................................

Part 2/verse riff:
D#------------------------------------------------|
A#----------12----------12--------14b-12-14b-12---|
F#----------12----------12--------14b-12-14b-12---|
C#----12-14----14-14-14----14-14------------------|  --
G#------------------------------------------------|    |
D#------------------------------------------------|    |
      .........................................        |
                                                       | 2x
D#------------------------------------------------|    |
A#----------12----------12------------------------|    |
F#----------12----------12------------------------|    | 
C#----12-14----14-14-14----14-14---13--13-13-14---|  --
G#------------------------------------------------|
D#------------------------------------------------|
      .........................................


VERSE:
Verse riff  2x


Riff A:
D#----------------------------------|
A#----------------------------------|
F#----------------------------------|  4x
C#----------------------------------|
G#----------------------------------|
D#---3-2-0-2---3-2-0--5-0-5--3-3---|


Verse riff 2x


VERSE 2:
Verse riff  2x


Riff A  4x

[ Tab from: http://www.guitaretab.com/t/tad/95225.html ]
CHORUS:
D#--------------------------------------------------|
A#--------------------------------------------------|
F#--------------------------------------------------|
C#---7-7-7-7-7-7-7-7-7-7-7--9-9-9-9-9-9-9-9-9-9-9---| 
G#---7-7-7-7-7-7-7-7-7-7-7--9-9-9-9-9-9-9-9-9-9-9---|
D#---5-5-5-5-5-5-5-5-5-5-5--7-7-7-7-7-7-7-7-7-7-7---|


Pause


Verse riff 2x


VERSE 3:
Verse riff  2x


Riff A  4x


CHORUS:
Chorus riff 1x


SOLO:
For the rhythm play Riff A 10x
D#------------------------------------------------------------------------|
A#------------------------------------------------------------------------|
F#------------------------------------------------------------------------|
C#------------------------------------------------------------------------|
G#---1-1-1-1-1-1-1-1-1-1-1-1-1-1-1-1-1-1-1-1-1--6-6-6-6-6-6-6-6-6-6-6-6---|
D#------------------------------------------------------------------------|

D#------------------------------------------------------------|
A#------------------------------------------------------------|
F#------------------------------------------------------------|
C#------------------------------------------------------------|
G#---8-8-8-8-8-8-8-8-8-8-8-8--11-11-11-11-11-11-11-11-11-11---|
D#------------------------------------------------------------|

D#---------------------------------------------------------------|
A#---------------------------------------------------------------|
F#---------------------------------------------------------------|
C#---------------------------------------------------------------|
G#---12-12-12-12-12-12-12-12-12--13-13-13-13-13-13-13-13-13-13---|
D#---------------------------------------------------------------|

D#---------------------------------------------------------------|
A#---------------------------------------------------------------|
F#---------------------------------------------------------------|
C#---------------------------------------------------------------|
G#---14-14-14-14-14-14-14-14-14--15-15-15-15-15-15-15-15-15-15---|
D#---------------------------------------------------------------|

D#---------------------------------------------------------------|
A#---------------------------------------------------------------|
F#---------------------------------------------------------------|
C#---------------------------------------------------------------|
G#---16-16-16-16-16-16-16-16-16--17-17-17-17-17-17-17-17-17-17---|
D#---------------------------------------------------------------|


Riff A  4x


OUTRO:
1st guitar:  Riff A 4x
2nd guitar:  Verse riff 2x 



b  =  bend
.  =  palm mute
Related for Satans Chainsaw tab