Guitaretab - guitar tabs
Song name
# A B C D E F G H I J K L M N O P Q R S T U V W X Y Z

Tad - Leafy Incline tab

-------------------------------------------------------------------------------
                               LEAFY INCLINE  Tad
-------------------------------------------------------------------------------

Tabbed by: brian_s
Email: branimir.sremec@kc.t-com.hr



INTRO:
E5       8x

[ Tab from: http://www.guitaretab.com/t/tad/95991.html ]
VERSE 1:
1st guitar
e--------------------------------------------------------|
B--------------------------------------------------------|
G-----------0------------0------------0------------0-----|  ---
D---------2---2--------2---2--------2---2--------2---2---|     |
A-------2------------2------------2------------2---------|     |
E-----0------------0------------0------------0-----------|     |
                                                               |
2nd guitar                                                     |  4x
e--------------------------------------------------------|     |
B--------------------------------------------------------|     |
G--------------------------------------------------------|     |
D---/8-----------7-----------\2--------------------------|  ---
A--------------------------------------------------------|
E--------------------------------------------------------|


PRE CHORUS:
E5  F#5  G5      8x


CHORUS:
G5  B5  A5       8x


INTRO:           8x


VERSE 2:         4x


PRE CHORUS:      8x


CHORUS:          8x


INTRO:           4x


SOLO:   
e-----------------------------|
B-----------------------------|
G---7-7-7-7-7---9-7-----------|   8x
D-------------------9--9\3---|
A-----------------------------|   for rhythm play pre chorus
E-----------------------------|
Related for Leafy Incline tab