Guitaretab - guitar tabs
Song name
# A B C D E F G H I J K L M N O P Q R S T U V W X Y Z

Tad - Cyanide Bath tab

TAD
Song: Cyanide Bath
Album: Godís Balls
Tabbed by Anthony DePiano on September 29, 2007

Tuning: Standard EADGBe

/ = slide
b = bend

VERSE:
   A B     A B       E D# D
e----------------------------|
B----------------------------|
G----------------------------|
D------------------2-1-0-----|
A--0-2-2-2-0-2-2-2-----------|
E----------------------------|

  A B     A B        B F E
e----------------------------|
B----------------------------|
G------------------4---------|
D--------------------3-2-----|
A-0-2-2-2-0-2-2-2------------|
E----------------------------|
 Repeat until chorus
[ Tab from: http://www.guitaretab.com/t/tad/96773.html ]
CHORUS:
    B     A
e-------------------------------------|
B-------------------------------------|
G-------------------------------------|
D-------------------------------------|
A--/9-9---7-/9-9-9----/9-9---7-/9-9-9-|
E--/7-7---5-/7-7-7----/7-7---5-/7-7-7-|

 Play until:

   A B C    A B      A A#     G    F#
e-------------------------------------|
B----------------------------------7b-|
G-------------------------------------|
D-------------------------------------|
A--0-2-3-3--0-2-2-2--0-1-1-1----------|
E-----------------------------3b------|

Repeat these movements.  I donít know
the solo.

I think thereís a pinch or artificial
harmonic in this song somewhere and if
it is, itís this:

e------
B-<5>--
G------|
D------|
A------|
E------|

Itís the same as playing he 24th fret on the
High ďeĒ string.
Related for Cyanide Bath tab