Guitaretab - guitar tabs
Song name
# A B C D E F G H I J K L M N O P Q R S T U V W X Y Z
Home / T / Tad / Potlatch tab

Tad - Potlatch tab

TAD
Song: Potlatch
Album: Salt Lick
Tabbed by Anthony DePiano on September 30, 2007

Tuning: Standard EADGBe

x = muted string
b= bend
~ = vibrato
<> = ďpinchĒ or artificial harmonic

   F
e------------------------------------|
B------------------------------------|
G-10--10-10-10--10-10--10-10--10--10-|  Play
D-10--10-10-10--10-10--10-10--10--10-|  4
A--8---8--8--8---8--8---8--8---8---8-|  Times
E------------------------------------|

On the fourth time, slide the chord down the neck
but Iím not sure to where.  Just let the sound
die out.

VERSE:
   F
e------|----------|---------------|
B------|----------|---------------|
G-10---|--10-10---|--10--10-10----|
D-10---|--10-10---|--10--10-10----|
A--8---|---8--8---|---8---8--8----|
E------|----------|---------------|
The verse is just the F's but itís played where itís
needed during the verse.

CHORUS:

   C                         C#
e-----------------------------------|
B-----------------------------------|
G-----------------------------------|
D-10--10-10-10--10-10--10-10-11--11-|
A--x---x--x--x---x--x---x--x--x--x--|
E--8---8--8--8---8--8---8--8--9--9--|

e-----------------------------------|
B-----------------------------------|
G-----------------------------------|
D-10--10-10-10--10-10--10-10-11--11-|
A--x---x--x--x---x--x---x--x--x--x--|
E--8---8--8--8---8--8---8--8--9--9--|

   A                          B
e----------------------------------|
B----------------------------------|
G----------------------------------|
D--7---7--7--7---7--7---7--7--9--9-|
A--x---x--x--x---x--x---x--x--x--x-|
E--5---5--5--5---5--5---5--5--7--7-|
[ Tab from: http://www.guitaretab.com/t/tad/96836.html ]
e----------------------------------|
B----------------------------------|
G----------------------------------|
D--7---7--7--7---7--7---7--7--9--9-|
A--x---x--x--x---x--x---x--x--x--x-|
E--5---5--5--5---5--5---5--5--7--7-|

e------------------------------------|
B------------------------------------|
G-10--10-10-10--10-10--10-10--10--10-|  Play
D-10--10-10-10--10-10--10-10--10--10-|  4
A--8---8--8--8---8--8---8--8---8---8-|  Times
E------------------------------------|

VERSE

CHORUS

THEN:
   D     E      F    F#
e-------------------------|
B-------------------------|
G-------------------------| Play
D-------------------------|   4
A--5-5-5-7--7-7-8-8--9-9--|  Times
E-------------------------|

   D           E
e-------------------------|
B-------------<5>b~~~~----|
G--7b~~~~-----------------|
D-------------------------|
A-------------------------|
E-------------------------|
 Whammy bar action! I guess. I donít have one.
<5> should sound like 24th fret on high E string.

e------------------------------------|
B------------------------------------|
G-10--10-10-10--10-10--10-10--10--10-|  Play
D-10--10-10-10--10-10--10-10--10--10-|  4
A--8---8--8--8---8--8---8--8---8---8-|  Times
E------------------------------------|

VERSE Ė Just the bass plays

CHORUS

This guy again.
e-------------------------|
B-------------------------|
G-------------------------| Play
D-------------------------|   4
A--5-5-5-7--7-7-8-8--9-9--|  Times
E-------------------------|

Little solo thing
   D      E       F#
e-------------------------|
B-------------------------|
G--7b~~~~-9b~~~~--11b~~~~-|
D-------------------------|
A-------------------------|

End with:
e------------------------------------|
B------------------------------------|
G-10--10-10-10--10-10--10-10--10--10-|  Play
D-10--10-10-10--10-10--10-10--10--10-|  4
A--8---8--8--8---8--8---8--8---8---8-|  Times
E------------------------------------|
Related for Potlatch tab