Guitaretab - guitar tabs
Song name
# A B C D E F G H I J K L M N O P Q R S T U V W X Y Z

Tad - Stumblin Man tab

-------------------------------------------------------------------------------
                              STUMBLIN' MAN  Tad
-------------------------------------------------------------------------------

Tabbed by: brian_s
Email: branimir.sremec@kc.t-com.hr


INTRO:
e--------------------------------------------------------|
B--------------------------------------------------------|
G----------------------------3---5---8-------------------|   4x
D---0--0-0--1---2---4---5---3---5---8-------------------|
A---0---0-0--1---2---4---5---1---3---6----7-7-7--5-3-----|
D---0---0-0--1---2---4---5---------------------------4---|


INTERLUDE:
1st guitar
e---------------------------------------------------|
B---------------------------------------------------|
G---------------------------------------------------|   6x
D---0h2-2-2-0h2-2-2---0-----0h2-2-2-0h2-2-2-------|
A---0h2-2-2-0h2-2-2---------0h2-2-2-0h2-2-2---1---|
D---0h2-2-2-0h2-2-2---------0h2-2-2-0h2-2-2-------|

2nd guitar
e---------------------------------------------------------------------|
B---------------------------------------------------------------------|
G---------------------------------------------------------------------|  2x
D---------------------------------------------------------------------|
A---7b-7b-7b-7b-7b--7b-7b-7b-7b-7b---5b-5b-5b-5b-5b-5b-5b-5b-5b-5b---|
D---------------------------------------------------------------------|


VERSE:
e------------------------------------------------------|
B------------------------------------------------------|
G------------------------------------------------------|   8x
D---1p0-0-0---1p0-0-0---1p0-0-0---1p0-0-0---1p0-1p0---|  
A---1p0-0-0---1p0-0-0---1p0-0-0---1p0-0-0---1p0-1p0---|
D---1p0-0-0---1p0-0-0---1p0-0-0---1p0-0-0---1p0-1p0---| 


INTERLUDE:
1st guitar
e---------------------------------------------------|
B---------------------------------------------------|
G---------------------------------------------------|   4x
D---0h2-2-2-0h2-2-2---0-----0h2-2-2-0h2-2-2-------|
A---0h2-2-2-0h2-2-2---------0h2-2-2-0h2-2-2---1---|
D---0h2-2-2-0h2-2-2---------0h2-2-2-0h2-2-2-------|
[ Tab from: http://www.guitaretab.com/t/tad/98408.html ]
2nd guitar
e---------------------------------------------------------------------|
B---------------------------------------------------------------------|
G---------------------------------------------------------------------|  2x
D---------------------------------------------------------------------|
A---7b-7b-7b-7b-7b--7b-7b-7b-7b-7b---5b-5b-5b-5b-5b-5b-5b-5b-5b-5b---|
D---------------------------------------------------------------------|


VERSE:
e------------------------------------------------------|
B------------------------------------------------------|
G------------------------------------------------------|   8x
D---1p0-0-0---1p0-0-0---1p0-0-0---1p0-0-0---1p0-1p0---|  
A---1p0-0-0---1p0-0-0---1p0-0-0---1p0-0-0---1p0-1p0---|
D---1p0-0-0---1p0-0-0---1p0-0-0---1p0-0-0---1p0-1p0---| 


CHORUS:
1st guitar
e--------------------------------------------------------|
B--------------------------------------------------------|
G----------------------------3---5---8-------------------|   4x
D---0--0-0--1---2---4---5---3---5---8-------------------|
A---0---0-0--1---2---4---5---1---3---6----7-7-7--5-3-----|
D---0---0-0--1---2---4---5---------------------------4---|

2nd guitar
e-------------------------------------------------------|
B-------------------------------------------------------|
G---9-------------------------7-----------12b-----------|   4x
D-------------------------------------------------------|
A-------------------------------------------------------|
D-------------------------------------------------------|


INTERLUDE:
1st guitar
e---------------------------------------------------|
B---------------------------------------------------|
G---------------------------------------------------|   4x
D---0h2-2-2-0h2-2-2---0-----0h2-2-2-0h2-2-2-------|
A---0h2-2-2-0h2-2-2---------0h2-2-2-0h2-2-2---1---|
D---0h2-2-2-0h2-2-2---------0h2-2-2-0h2-2-2-------|

2nd guitar
e---------------------------------------------------------------------|
B---------------------------------------------------------------------|
G---------------------------------------------------------------------|  2x
D---------------------------------------------------------------------|
A---7b-7b-7b-7b-7b--7b-7b-7b-7b-7b---5b-5b-5b-5b-5b-5b-5b-5b-5b-5b---|
D---------------------------------------------------------------------|


OUTRO:
e------------------------------------------------------|
B------------------------------------------------------|
G------------------------------------------------------|   2x
D---1p0-0-0---1p0-0-0---1p0-0-0---1p0-0-0---1p0-1p0---|  
A---1p0-0-0---1p0-0-0---1p0-0-0---1p0-0-0---1p0-1p0---|
D---1p0-0-0---1p0-0-0---1p0-0-0---1p0-0-0---1p0-1p0---| 



h   =  hammer-on
p   =  pull-off
b   =  bend 
Related for Stumblin Man tab