Song name
# A B C D E F G H I J K L M N O P Q R S T U V W X Y Z

Taddy Porter - Whatever Haunts You tab

Intro:

Clean
e|------------xx--xx---------------------------------xx--xx------------------|
B|-3/5--------xx--xx----------------------3/5--------xx--xx------------3-----|
G|------------xx--xx--2p0-2/4-0-2h4p2----------------xx--xx--2p0-2-3-4-------|
D|-------2----xx--xx------------------2p0-------2----xx--xx------------------|
A|-------2----xx--xx----------------------------2----xx--xx------------------|
E|-----0-0----xx--xx--------------------------0-0----xx--xx------------------|

e|------------xx-------------------------------------------------------------|
B|-3/5--------xx-2/12------------------------3/5--------xxx--xx--------------|
G|------------xx-2/12----2p0-2/4-0-2h4p2----------------xxx--xx------------3-|
D|-------2----xx-2/12--------------------2p0-------2----xxx--xx--2p0-2-3-4---|
A|-------2----xx-----------------------------------2----xxx--xx--------------|
E|-----0-0----xx---------------------------------0-0----xxx--xx--------------|

e|---0---------0-------------------------------------------------------------|
B|---------------------------------------------------------------------------|
G|---------------------------------------------------------------------------|
D|---------------------------------------------------------------------------|
A|-----5h7-7-----5h7p5h7p5h7p5h7p5h7p5h7-(not sure exact number of times)----|
E|-0---------0---------------------------------------------------------------|

e|---0----------------------0---------0---------------------------0----------|
B|---------------------------------------------------------------------------|
G|---------------------------------------------------------------------------|
D|-------------7b9rp5--------------------------------------------------------|
A|-----5h7-7----------7p5-----5h7-7-----5h7p5h7p5h7p5h7p5h7p5h7-----5h7-7----|
E|-0---------0------------0---------0---------------------------0------------|

Distortion
e|----------------------------------------------|
B|----------------------------------------------|
G|----------------------------------------------| repeat once
D|----------------------------------------------|
A|-5-7---5--5h7-7---5--5h7-7---5--5h7-----------|
E|-3-5-0--0-------0--0-------0--0---------------|
          .          .          .
Verse:
Softly
e|----0-----0-----0--------------------------|
B|-------------------------------------------|
G|-------------------------------------------| repeat once
D|-------------------------------------------|
A|-2-----------------5--7--------------------|
E|-0-----0-----0-----3--5--------------------|

e|------------------------------------------|
B|------------------------------------------|
G|------------------------------------------| repeat once
D|------------------------------------------| ("Main riff")
A|---5--5h7-7---5--5h7-7---5--5h7-7-5-7-----|
E|-0--0-------0--0-------0--0-------3-5-----|
      .          .          .

e|---------------------------|
B|--------------------2/12---|
G|--------------------2/12---|
D|-xx-----------------2/12---|
A|-xx-----------7------------|
E|-xx-5-6-5-0-3-5------------|

Chorus:
Play Main riff twice

Post-chorus:
Play Main riff twice

Bridge (pre-solo):
Play first part of intro

Solo:
Main riff

Altered Verse

e|----0-----0-----0--------------------------|
B|-------------------------------------------|
G|-------------------------------------------| repeat once
D|-------------------------------------------|
A|-2-----------------5--7--------------------|
E|-0-----0-----0-----3--5--------------------|

on second time, ends like this:

e|-----------------------------------|
B|-----------------------------2/12--|
G|-----------------------------2/12--|
D|----------xx-----------------2/12--|
A|-5555-7-7-xx-----------7-----------|
E|-3333-5-5-xx-5-6-5-0-3-5-----------|
   ....

Chorus twice

end on:
e|-----------------------|
B|-----------------------|
G|-----------------------|
D|-xx--------------------|
A|-xx-----------7--------|
E|-xx-5-6-5-0-3-5--------|
Tap to rate this tab
 
# A B C D E F G H I J K L M N O P Q R S T U V W X Y Z