Song name
# A B C D E F G H I J K L M N O P Q R S T U V W X Y Z

Tadeusz Nalepa - Takie Jest Zycie tab

-------------------------------------------------------------------------------
                    Takie jest zycie - Tadeusz Nalepa (Breakout)
-------------------------------------------------------------------------------
Tabbed by: Running_Dogg
E-mail: onlycrims@gmail.com

Tuning: Standard


Cool polish bluesy song


---------------------------------------------------
Intro #1 and verse lick
---------------------------------------------------




Pinch that 7 fret bend at G

Play it twice

e|---------------------------------------------------------------------------|
B|---------------------------------------------------------------------------|
G|---7br--5-7-5--------------------------------------------------------------|
D|----------------7-5-7------------------------------------------------------|
A|-----------------------5\3---5-3-------------------------------------------|
E|----------------------------------5----------------------------------------|
         
e|---------------------------------------------------------------------------|
B|---------------------------------------------------------------------------|
G|---7br---5-7-5-------------------------------------------------------------|
D|----------------7-5-7------------------------------------------------------|
A|-----------------------5\3~------------------------------------------------|
E|------------------------------5\-------------------------------------------|




-----------------------------------------------------
Intro #2 and chorus lick
-----------------------------------------------------



Play it twice


e|---------------------------------------------------------------------------|
B|---------------------------------------------------------------------------|
G|---------------------------------------------------------------------------|
D|---2----x-----4------------------------------------------------------------|
A|---0----3b----5---6-7------------------------------------------------------|
E|-----------------------3~~-------------------------------------------------|

e|---------------------------------------------------------------------------|
B|---------------------------------------------------------------------------|
G|-----------------------5b--------------------------------------------------|
D|---2----x-----4------------------------------------------------------------|
A|---0----3b----5---6-7------------------------------------------------------|
E|---------------------------------------------------------------------------|





X2 verse
x2 chorus

x2 verse
x2 chorus

Keys solo

X2 verse
x2 chorus

x2 verse
multiple times til end chorus




************************************

| /   slide up
| \   slide down
| h   hammer-on
| p   pull-off
| ~   vibrato
| +   harmonic
| x   Mute note
| b   Bend
| pb  Pre-bend
| br  Bend release
| pbr Pre-bend release
| brb Bend release bend

************************************



http://www.blues.pl/Tadeusz_Nalepa/
http://en.wikipedia.org/wiki/Tadeusz_Nalepa
Tap to rate this tab
 
# A B C D E F G H I J K L M N O P Q R S T U V W X Y Z