Song name
# A B C D E F G H I J K L M N O P Q R S T U V W X Y Z

Tae Yang - Wedding Dress tab

Taeyang - Wedding Dress
Standard Tuning.
Chords: Em, C, G, D (Play tabs and chords together for best results!)
Tabs played throughout whole song. Guitar comes in after tabs are played once.
This was tabbed by ear so don't be too harsh =]
By: Kelvin Lieu :)
Add me: da_unknown_azn@hotmail.com

E----4-------1---1-------------------4------------------------------|
A--------2-----------2---1---2---4---6---6---6---6---6---4---2---4--|
D-------------------------------------------------------------------|
G-------------------------------------------------------------------|
B-------------------------------------------------------------------|
E-------------------------------------------------------------------|


E----4-------1---1-----------------------4-----------------------------|
A--------2-----------2---1---2---4---6-------1---1/2---3/4---2---4-----|
D----------------------------------------------------------------------|
G----------------------------------------------------------------------|
B----------------------------------------------------------------------|
E----------------------------------------------------------------------|

Repeat this until these tabs until the song ends !
Rate/Comment/Add! & thanks :)
Tap to rate this tab
 
# A B C D E F G H I J K L M N O P Q R S T U V W X Y Z