Song name
# A B C D E F G H I J K L M N O P Q R S T U V W X Y Z

Tae Yang - Wedding Dress tab

Tae Yang - Wedding Dress

Tuning: Standard

Key: C Major

Ok I figured this site needed a good tab for this song so this isn't entirely mine 
but I did come up with some of it, thanks to handoyomia for the verses, and enjoy :)

Chords: Am, F, C, G

Verses:

      Am                        F

|---3--------------------|--------1--1-------------|
|------------0-----1--1--|-----2-----------1---3---|
|---------2-----2--------|--3-----------2----------|
|------2-----------------|-------------------------|
|---0--------------------|-------------------------|
|------------------------|-------------------------|

      C                         G

|---0--------0-----1--0--0--|-----------------3--------|
|---------------------------|-----3--------------1--3--|
|---------0-----0-----------|--------------0-----------|
|------2--------------------|-----------0--------------|
|---3-----------------------|--------------------------|
|---------------------------|--3-----3-----------------|

Chorus:


      Am                        F

|---0--0--0-------------|--1--1--1--1-------------|
|---2--2--2--3-3-3-2-1--|--2--2--2--2--3-3-3-2-1--|
|---2--2--2-------------|--3--3--3--3-------------|
|---1--1--1-------------|--3--3--3--3-------------|
|-----------------------|-------------------------|
|-----------------------|-------------------------|

      C                       G

|---0--0--0--0-------------|--3--3--3--3-----------|
|---1--1--1--1-------------|--0--0--0--0-----------|        
|---0--0--0--0-------------|--0--0--0--0-----------|
|---2--2--2--2--3-3-3-2-0--|--0--0--0--0--2-2-3-2-0|
|---3--3--3--3-------------|--2--2--2--2-----------|
|--------------------------|--3--3--3--3-----------|

-or-

      Am                        F

|---0--0--0--1-1-1-1-1--|--1--1--1--1--1-1-1-1-1--|
|---2--2--2--3-3-3-2-1--|--2--2--2--2--3-3-3-2-1--|
|---2--2--2--2-2-2-2-2--|--3--3--3--3--3-3-3-3-3--|
|---1--1--1--1-1-1-1-1--|--3--3--3--3--3-3-3-3-3--|
|-----------------------|-------------------------|
|-----------------------|-------------------------|


    C                         G

|---0--0--0--0--0-0-0-0-0--|--3--3--3--3--3-3-3-3-3|    
|---1--1--1--1--1-1-1-1-1--|--0--0--0--0--0-0-0-0-0|    
|---0--0--0--0--0-0-0-0-0--|--0--0--0--0--0-0-0-0-0|
|---2--2--2--2--3-3-3-2-0--|--0--0--0--0--2-2-3-2-0|
|---3--3--3--3--3-3-3-3-3--|--2--2--2--2--x-x-x-x-x|
|--------------------------|--3--3--3--3--3-3-3-3-3|

Enjoy!

Tap to rate this tab
# A B C D E F G H I J K L M N O P Q R S T U V W X Y Z