Song name
# A B C D E F G H I J K L M N O P Q R S T U V W X Y Z

Tae Yang - Wedding Dress tab

Tae Yang
"Wedding Dress"

Enjoy!!

Chords:
Am    F    C    G

e|--3--------00------------0--0--1p0---0---------------|
b|-------0---11-----1--1s3-1-1---------3----3--1p0h1---|
g|------2-------------0-----0--------------0-----------|
d|-----2-----------3----------------------0------------|
a|--0-------------3--------3---------------------------|
E|---------------1---------------------3---------------|

e|--3~~------00------------0--3---------------------------------|
b|-------0~--11-----1--1s3-1-11--1-3-------1--1-3---------------|
g|------2-------------0-----0------------0-0---------       <---| Repeat
d|-----2-----------3--------------------0-----------------------|
a|--0~------------3--------3------------------------------------|
E|---------------1---------------------3------------------------|
Tap to rate this tab
# A B C D E F G H I J K L M N O P Q R S T U V W X Y Z