Song name
# A B C D E F G H I J K L M N O P Q R S T U V W X Y Z

Tae Yang - Wedding Dress tab

-------------------------------------------------------------------------------
			     WEDDING DRESS - Tae Yang
-------------------------------------------------------------------------------
Tabbed by: Sandy Yang
Email: sky.41694@live.com

Tuning: Standard

This is the first third to half of the song for now.


e|---3------------------------1----------0------0-----0-----1-0-0-----|
B|----------0----1--1-------1------1--3-------------------------------|
G|--------2----2----------2------2-----------0-----0-----0------------|
D|------2---------------3------------------2--------------------------|
A|---0-----------------------------------3----------------------------|
E|--------------------------------------------------------------------|

e|--------------3--------3--------------------1----------0------0-----|
B|-----3-----------1--3--------0---1-1------1------1-3----------------|
G|------------0--------------2---2--------2------2-----------0----0---|
D|----------0--------------2------------3------------------2----------|
A|-----------------------0-------------------------------3------------|
E|--3-----3-----------------------------------------------------------|

e|---------------3---------3--------------------1--------0------0-----|
B|--1-3---------------2----------0---1-1------1------1-3--------------|
G|-------------0----0---0------2---2--------2------2---------0-----0--|
D|-----------0---------------2------------3----------------2----------|
A|--------------------0----0-----------------------------3------------|
E|---------3----------------------------------------------------------|

e|--1-0-0--------------3------3--------------------1---------0------0-|
B|------------3----------1-3--------0----1-1-----1------1-3-----------|
G|-------------------0------------2---2--------2------2----------0----|
D|-----------------0------------2------------3-----------------2------|
A|----------------------------0------------------------------3--------|
E|---------3-----3----------------------------------------------------|

e|---------------3----------------------------------------------------|
B|----1-3------------0---------1-1-1-1-1-1-1--------1-1-1-1-1-1-1-----|
G|--0----------0---0---0---------------------2--------------------2---|
D|-----------0------------------------------------3-------------------|
A|-------------------2----0-------------------------------------------|
E|---------3----------------------------------------------------------|

e|-----1-1-1-1-1-1-3-1---0h1-0--------------1-1-1-1-1-1-1---1-1-1-1---|
B|-----------------------------1-1------------------------2-2-2-2---2-|
G|---------------------------------0-2-0--------------------3-3-3-----|
D|--------------------------------------------------------------------|
A|--3--------------------2---------------0----------------------------|
E|-----------------------3-------3------------------------------------|

e|---------------------0h1--0-------------------------------------0---|
B|----1-1-1-1-1-1-3-1---------1-1-----1-----1-1-1-1-1-1-------1-3-----|
G|--------------------------------0-2-------------------2---2---------|
D|------------------------------------------------3-------------------|
A|-3-------------------2--------2-----2---0---------------3---3-------|
E|---------------------3--------3-----3-------------------------------|

e|----0----0-0-0-------------0----------------------------------------|
B|---------------3-3-1-3-3-3---3-1-0-----------3-1-1-----1-1-3-3-1-1--|
G|---------------------------------------0-0-0------------------------|
D|-------------------------------------------------3--3------------3--|
A|-3-----3----------------------------0-------------------------------|
E|--------------------------------------------------------------------|

e|-0-----0-----0------------1----2-----1-----0------3-----0-----------|
B|-------------------1----------------------------------1---1---0--1--|
G|----0-----0-----0--0-0------------------------------2-------2------0|
D|--------------------------------------------------------------------|
A|-3-----3-----3-------------------------------0-2--0--------------3--|
E|------------------------3----3----3-----3--3------------------------|

e|-------------------------------------------------3-------0----------|
B|--1---1----1-----1---1---1---1h3--3------1-1-1-1-------1---1------1-|
G|----0---0--0-2-----0---0---0-------------------0-----2--------------|
D|---------------3-----------------------------------2---------2-0----|
A|--3---3----3-----3---3---3--------2---2----------0----------------3-|
E|----------------------------------3-3-------------------------------|

e|----------------------------------------------------3-3-1-0---0-----|
B|---1----1----1------1---1----1--1h3---0-----0-0-----1-------3---1---|
G|-0---0----0--0--2-----0---0---------------0---------2-------------2-|
D|------------------3---------------------0-----------2---------------|
A|---3----3----3------3---3----3--------2-------2--2--0-------3---3---|
E|--------------------------------------3-------3---------------------|

e|--------0-0-0---0--1--0--------------------------3--3-1-0--------0--|
B|-1--3-3---------1-----------3--------1------1-1--1--------1----3----|
G|----------------0------------------0------------------------2-------|
D|----------------2--------------------------------2------------------|
A|-3----3---3-----3----------------------------------------------3----|
E|-------------------------3------3--------3-------0------------------|

e|--------------0-0-0-0--1-3------------------------------------------|
B|-1---1--3--3--------------------------------------------------------|
G|---2----------------------------------------------------------------|
D|---------------------------------------MORE SOON!-------------------|
A|-3---3--3--3--------------------------------------------------------|
E|--------------------------------------------------------------------|

updated 4.19.2010
Tap to rate this tab
# A B C D E F G H I J K L M N O P Q R S T U V W X Y Z