Song name
# A B C D E F G H I J K L M N O P Q R S T U V W X Y Z

Taeyang - Where You At tab

CAPO 1


|------2------------2------------2------------2---2-0----|
|---3------3--3-3------3--3--3-------3--3-3----------3---|
|-----4--4--4-----4--4--4------2---2---2----2---2--------|
|--------------------------------------------------------|
|--------------------------------------------------------|        
|--------------------------------------------------------|

|----------0----------0-----2h3-2-0----------------------|
|---3---2-3-3-3---2-3--3------------3-3------------------|
|-----2--2------2--2-------------------------------------|
|--------------------------------------------------------|
|--------------------------------------------------------|
|--------------------------------------------------------|
Tap to rate this tab
 
# A B C D E F G H I J K L M N O P Q R S T U V W X Y Z