Guitaretab - guitar tabs
Song name
# A B C D E F G H I J K L M N O P Q R S T U V W X Y Z

Tahiti 80 - Heartbeat tab

----------------------------------------------------------------------------
			     HEARTBEAT - Tahiti 80
----------------------------------------------------------------------------
Tabbed by: Jesse Benedick
Email: JBMetal311@yahoo.com

http://www.tahiti80.com/index5.php
Francais

Tuning: Standard
[ Tab from: http://www.guitaretab.com/t/tahiti-80/130365.html ]
e|---7------------------|-----------19-17~----------19-17~----------19-17~-|
B|---7--xx--7---8---7---|--------------------------------------------------|
G|---7--xx--7---7---7---|--14-16-----------14-16-----------14-16-----------|
D|---5--xx--7---7---7---|--------17--------------17--------------17--------|
A|----------------------|--------------------------------------------------|
E|----------------------|--------------------------------------------------|
 Opening chords          Keyboard part tabbed for guitar.
e|---------------|---------------------------------------------------------|
B|---------------|----7----5----3------------------------------------------|
G|--14----14-----|----6----5----4------------------------------------------|
D|-----17----16~-|----7----5----4------------------------------------------|
A|---------------|----5----x----x------------------------------------------|
E|---------------|---------5----3----0--0-0-0-0-0-0------------------------|
                  Chorus chords
e|----7---------7----------------------------------------------------------|
B|----7----7----7----7-----------------------------------------------------|
G|----7----7----7----7-----------------------------------------------------|
D|----5----7----5----7-----------------------------------------------------|
A|-------------------7-----------------------------------------------------|
E|-------------------------------------------------------------------------|
 Breakdown

This is the first of many Tahiti 80 tabs.

| /  slide up
| \  slide down
| h  hammer-on
| p  pull-off
| ~  vibrato
| +  harmonic
| x  Mute note
============================================================================
Related for Heartbeat tab