Song name
# A B C D E F G H I J K L M N O P Q R S T U V W X Y Z

Tahiti 80 - Listen tab

----------------------------------------------------------------------------
			     LISTEN - Tahiti 80
----------------------------------------------------------------------------
Tabbed by: Jesse Benedick
Email: JBMetal311@Yahoo.com

Tuning: Standard

e|---|------------|----------------|---0-----------|---------|
B|-9-|---7---9----|-11-9-----------|---0-----------|----9----|
G|-8-|---8---8----|------11-6/8~---|---3-----------|----8----|
D|-9-|---8---9----|----------------|---4-----------|----9----|
A|-x-|---x---x----|----------------|---4-----------|----x----|
E|-9-|---7---9----|----------------|---2-----------|----9----|
      Main Chords   Main Notes       Chorus Chord   Breakdown chord
e|-------------------------------------------------------------------------|
B|-----------------------------------10/11~--------------------------------|
G|--4b6r4--------8-8\6-4~----8-9-9~-----------8-9-9~--8-8/6-4~-----8-11-11~|
D|-------------------------9----------------9-------------------/9---------|
A|--------4-4-4------------------------------------------------------------|
E|-------------------------------------------------------------------------|
  Solo
e|--------------|
B|--------------|
G|---7/9~-11~---|
D|-9------------|
A|--------------|
E|--------------|


| /  slide up
| \  slide down
| h  hammer-on
| p  pull-off
| ~  vibrato
| +  harmonic
| x  Mute note
============================================================================
Tap to rate this tab
# A B C D E F G H I J K L M N O P Q R S T U V W X Y Z