Song name
# A B C D E F G H I J K L M N O P Q R S T U V W X Y Z

Tailout Cycle - Lie Or Die tab

Author: badboyTCfan

Lie Or Die:
Tuning: Drop D

[Intro](also verse)

----0---0-1-0-------------------|
------0-------0-----------------|
--------------------------------|
--------------------------------|
--------------------------------|
--------------------------------|

[Chorus]

--------------------------------|
--------------------------------|
--------------------------------|
--2-1-0-2-3-2-1-0---------------|
--2-1-0-2-3-2-1-0---------------|
--2-1-0-2-3-2-1-0---------------|

[Bridge]

---------------------------------|
---------------------------------|
---------------------------------|
-2-2-2-2-2-2-2-2-2-2-2-2-2-2-2-2-|
-2-2-2-2-2-2-2-2-2-2-2-2-2-2-2-2-|
-2-2-2-2-2-2-2-2-2-2-2-2-2-2-2-2-|


---------------------------------|
---------------------------------|
---------------------------------|
-3-3-3-3-3-3-3-3-3-3-3-3-5-5-6-6-|
-3-3-3-3-3-3-3-3-3-3-3-3-5-5-6-6-|
-3-3-3-3-3-3-3-3-3-3-3-3-5-5-6-6-|


---------------------------------|
---------------------------------|
---------------------------------|
-2-2-2-2-2-2-2-2-2-2-2-2-2-2-2-2-|
-2-2-2-2-2-2-2-2-2-2-2-2-2-2-2-2-|
-2-2-2-2-2-2-2-2-2-2-2-2-2-2-2-2-|

---------------------------------|
---------------------------------|
---------------------------------|
-3-3-3-3-3-3-3-3-8-8-8-8-0-0-0-0-|
-3-3-3-3-3-3-3-3-8-8-8-8-0-0-0-0-|
-3-3-3-3-3-3-3-3-8-8-8-8-0-0-0-0-|

http://myspace.com/tailoutcycleband
Tap to rate this tab
 
# A B C D E F G H I J K L M N O P Q R S T U V W X Y Z