Guitaretab - guitar tabs
Song name
# A B C D E F G H I J K L M N O P Q R S T U V W X Y Z

Taio Cruz - Break Your Heart tab

 -- Taio Cruz  Break Your Heart --

standard tuning EADGBE

tabbed by x-tasha-x


Intro:
   Bm  G  D  F#m
E||--------------|  
B||--------------|  
G||-44----77-----| x4
D||-44-55-77-44--|  
A||-22-55-55-44--|  
E||----33----22--|  


Verse:
   Bm  G  D  F#m
E||--------------|  
B||--------------|  
G||-44----77-----| x4
D||-44-55-77-44--|  
A||-22-55-55-44--|  
E||----33----22--|  

[ Tab from: http://www.guitaretab.com/t/taio-cruz/192401.html ]
Pre Chorus:
     Bm   G    D    A   Bm    G    D   F#m
E||------------------------------------------|  
B||------------------------------------------|  
G||-4444------7777------4444------7777-------|
D||-4444-5555-7777-7777-4444-5555-7777-4444--|  
A||-2222-5555-5555-7777-2222-5555-5555-4444--|  
E||------3333------5555------3333------2222--|  


Chorus:
   Bm  G  D  F#m
E||--------------|  
B||--------------|  
G||-44----77-----| x8
D||-44-55-77-44--|  
A||-22-55-55-44--|  
E||----33----22--|  


Verse 2(same as verse 1)

Pre Chorus

Chorus

Bridge:
     Bm   G    D    A   Bm    G    D   F#m
E||------------------------------------------|  
B||------------------------------------------|  
G||-4444------7777------4444------7777-------|
D||-4444-5555-7777-7777-4444-5555-7777-4444--|  
A||-2222-5555-5555-7777-2222-5555-5555-4444--|  
E||------3333------5555------3333------2222--|  


End with chorus till end of song
Related for Break Your Heart tab