Guitaretab - guitar tabs
Song name
# A B C D E F G H I J K L M N O P Q R S T U V W X Y Z

Taio Cruz - Dynamite tab

Song:      Dynamite
Artist:    Taio Cruz
Tabbed by: Christ12

Chorus:

Chords: (Capo on 4th fret)
         Am G C F

Tabs:   (No Capo)

|-4--4----4---2----0------0--4------------|
|---------------------4---------------2---|
|---------------------------------4-------|
|-----------------------------------------|
|-----------------------------------------|
|-----------------------------------------|
  I throw my hands up in the air sometimes
[ Tab from: http://www.guitaretab.com/t/taio-cruz/243249.html ]
|-0--2--0------0--2--4------|
|----------2-------------2--|
|---------------------------|
|---------------------------|
|---------------------------|
|---------------------------|
 Saying ay-oh gotta let go

|-4--4--4--2-0------0----4-----------|
|---------------4----------------2---|
|-----------------------------4------|
|------------------------------------|
|------------------------------------|
|------------------------------------|
  I wanna celebrate and live my life

|-0--2--0------0-2--4-------|
|----------2--------------2-|
|---------------------------|
|---------------------------|
|---------------------------|
|---------------------------|
 Saying ay-oh baby let's go
Related for Dynamite tab
Dynamite chords by Taio Cruz