Song name
# A B C D E F G H I J K L M N O P Q R S T U V W X Y Z

Taio Cruz - Dynamite tab

sorry but it's the 1st one I've made and hope this works on ur guitar...I only 
know the chorus of the song (or some parts)


|--15-15-15-15-13-11-13-15-------11-13-11----11-13-11---|
|-------------------------11-13-----------13----------13|
|-------------------------------------------------------| X2
|-------------------------------------------------------|
|-------------------------------------------------------|
|-------------------------------------------------------|
   I put my hands up in the air sometime, sayin' eyo Gotta let go!
I wanna celebrate and live my life Saying AYO! Baby, let's go!


|--11-11-11-11-11-11--11-11-11-11-11--11-11-11-10---11-13-15-----|
|-----------------------------------------------------------11-13|
|----------------------------------------------------------------|
|----------------------------------------------------------------| X2
|----------------------------------------------------------------|
|----------------------------------------------------------------|

'Cause we gon' rock this club
We gon' go all night
We gon' light it up 
Like it's dynamite!
'Cause I told you once
Now I told you twice
We gon' light it up
Like it's dynamite!

hope y0u lyke it!^_^

Questions, suggestions? email me adrianlajera@yahoo.com.ph
Tap to rate this tab
 
# A B C D E F G H I J K L M N O P Q R S T U V W X Y Z