Guitaretab - guitar tabs
Song name
# A B C D E F G H I J K L M N O P Q R S T U V W X Y Z

Tait - Child tab

Intro/Verse/(Chorus)(ocatave higher)
0:00
-------------------------------------------|
-------------------------------------------|
---8-----3---------------------------------|
---8--4--3--4------------------------------|
---6--4--1--4------------------------------|
------2-----2------------------------------| REPEATEDLY
[ Tab from: http://www.guitaretab.com/t/tait/144881.html ]
0:45
Riff/Bridge
-------------------------------------------|
-------------------------------------------|
---4---8-----------------------------------|
---4---8-----------------------------------|
---2---6-----------------------------------|
-------------------------------------------| REPEATEDLY

1:00
verse/chorus

1:30
Riff/bridge

1:40
Verse/chorus

2:15
Riff/bridge

2:30
Verse/chorus

Solo
2:50
(improvise over verse/chorus)

3:40
intro/verse/chorus

4:15
(FADE)
Related for Child tab
×
Child