Song name
# A B C D E F G H I J K L M N O P Q R S T U V W X Y Z

Taize - Per Crucem tab

Per Crucem is one of Hundreds of Songs Developed from the town of Taize andit is an 
peice of music that should be loved and adored. This song is in fact a round, so as one line 
the other can harmonize in, 6 times. Chords are Dm, Gm, C, F, Bb, Gm, A, Dm

Moderatly Slow

   Per    Cru -    Cem     Et pasi   onem      tu-     am
E|--------------------------------------------------------------|
B|--------------------------------------------------------------|
G|--------------------------------------------------------------|
D|--0----0-----------3----3-3--3----2-----0-----2------0--------|
A|-------------3------------------------------------------------|
E|--------------------------------------------------------------|
    Liberanus Domine, Liberanus Domine, Liberanus Domine, Domine
E|--------------------------------------------------------------|
B|--------3--------------1--------------------------------------|
G|------2---3--2--0----0--2-0-----------3-0-------2-------------|
D|--0-3---------------2-------3-----0-3-----3--2-----2--3-------|
A|-------------------3------------1-----------------------------|
E|--------------------------------------------------------------|
   Per Cru-Cem Et pasi  onem  tu-    am
E|--------------------------------------------------------------|
B|--------------------------------------------------------------|
G|-2--3--5--2-2---3---------------------------------------------|
D|-------------------3--5--5---7--------------------------------|
A|---------------------------------7---8------------------------|
E|--------------------------------------------------------------|
    Liberanus Domine, Liberanus Domine, Liberanus Domine, Domine
E|--------------------------------------------------------------|
B|--------------------------------------------------------------|
G|--7-5-3-2-0--2--3-----5-3-2-0--0-2---3-2-0-------0--2---------|
D|------------------------------3------------3-2-3------2--3----|
A|--------------------------------------------------------------|
E|--------------------------------------------------------------|
      Per  Sacn -     Tam    Res-  sur –exit – onem tu-am
E|--------------------------------------------------------------|
B|--3--3---1---1----3-------------------------------------------|
G|----------------------5--3--2--3--3--2--2---------------------|
D|--------------------------------------------------------------|
A|--------------------------------------------------------------|
E|--------------------------------------------------------------|
    Liberanus Domine, Liberanus Domine, Liberanus Domine, Domine
E|--------------------------------------------------------------|
B|--------------------------------------------------------------|
G|----------0-0-0-----------------------------------------------|
D|--0-0-0-0-----------------3-3-3-----------2-2-2--------0------|
A|-----------------3-3-3-3----------1-1-1-1---------0-0---------|
E|--------------------------------------------------------------|

Website for the taize music is www.taize.fr
Tap to rate this tab
# A B C D E F G H I J K L M N O P Q R S T U V W X Y Z