Guitaretab - guitar tabs
Song name
# A B C D E F G H I J K L M N O P Q R S T U V W X Y Z

Taize - Nada Te Turbe tab

Nada Te Turbe Solo

This is the Solo to Nada Te Turbe. 
Chord Progression is Am, F6, G, C, F, ?, E, Am 

E|------------10---8----7-----12---10------8--------------------|
B|-----10-------------------------------------------------------|
G|--------------------------------------------------------------|
D|--------------------------------------------------------------|
A|--------------------------------------------------------------|
E|--------------------------------------------------------------|

E|---8----8---8----8----13----10-----8---712-------------------|
B|----------------------------------------------10--------------|
G|--------------------------------------------------------------|
D|--------------------------------------------------------------|
A|--------------------------------------------------------------|
E|--------------------------------------------------------------|
[ Tab from: http://www.guitaretab.com/t/taize/82037.html ]
E|--10-----10-----8-----7------8------10-------8----------------|
B|--------------------------------------------------------------|
G|--------------------------------------------------------------|
D|--------------------------------------------------------------|
A|--------------------------------------------------------------|
E|--------------------------------------------------------------|

E|----------------7------8---10----12---13---12-----------------|
B|---10----10----------------------------------------12----13---|
G|--------------------------------------------------------------|
D|--------------------------------------------------------------|
A|--------------------------------------------------------------|
E|--------------------------------------------------------------|

E|-------10-----10-----8-----7-----15----13-----12--------------|
B|--------------------------------------------------------------|
G|--------------------------------------------------------------|
D|--------------------------------------------------------------|
A|--------------------------------------------------------------|
E|--------------------------------------------------------------|

E|------------7---8----10-----12----13-----12-------------------|
B|-----10--10--------------------------------------10-----------|
G|--------------------------------------------------------------|
D|--------------------------------------------------------------|
A|--------------------------------------------------------------|
E|--------------------------------------------------------------|

The parts and Chords are Coming Soon. 
Related for Nada Te Turbe tab