Taj Mahal - Diving Duck Blues tab

intro
e|-------------------------------------|
B|-------------------------------------|
G|-5-7---------------------------------|
D|-----5-7-----------------------------|
A|---------5-7---5---------------------|
E|-------------8-----------------------|

e|-------------------------------------|
B|-------------------------------------|
G|-------------------------------------|
D|------7---5-------------5------------|
A|--------7---7-5-----5h7--------------|
E|-5-5-------------8-------------------|
verse
e|-------------------------------------|x4
B|-------------------------------------|
G|-------------------------------------|
D|------7---5--------------------------|
A|--------7---7-5----------------------|
E|-5-5-------------8-------------------|

e|-------------------------------------|x2
B|-------------------------------------|
G|-----7---5---------------------------|
D|-------7---7-5-----------------------|
A|-5-5-----------8---------------------|
E|-------------------------------------|

e|-------------------------------------|x2
B|-------------------------------------|
G|-------------------------------------|
D|------7---5--------------------------|
A|--------7---7-5----------------------|
E|-5-5-------------8-------------------|
bridge
e|-------------------------------------|
B|-------------------------------------|
G|-------------------------------------|
D|-------------------------------------|
A|-7~-7~-7~-7~-7~-7~-------------------|
E|-------------------------------------|

e|-------------------------------------|
B|-------------------------------------|
G|-------------------------------------|
D|------7---5-------------5------------|
A|--------7---7-5-----5h7--------------|
E|-5-5-------------8-------------------|

enjoy its a great tune to jam on
Tap to rate this tab
 
# A B C D E F G H I J K L M N O P Q R S T U V W X Y Z