Song name
# A B C D E F G H I J K L M N O P Q R S T U V W X Y Z

Takacha - Movin tab

Takacha
"Movin"

I'm tabbin' the the guitar, koto, n some piano/synth sound bein played.

Intro

e--8-x-8-xx-7-x-7-10-xx-4/5-5-xxx-4/5-4/5--|
B--8-x-8-xx-8-x-8-8--xx-4/5-5-xxx-4/5-4/5--|
G--9-x-9-xx-7-x-7-7--xx-4/5-5-xxx-4/5-4/5--|
D------------------------------------------|
A------------------------------------------|
E------------------------------------------|


e--8-x-8-xx-7-x-7-10-xx-4/5-5-----------|
B--8-x-8-xx-8-x-8-8--xx-4/5-5------5----|
G--9-x-9-xx-7-x-7-7--xx-4/5-5-----5-5---|
D-----------------------------5h7-------|
A---------------------------------------|
E---------------------------------------|

         or

e--8--x-8--xx-7-x-7-10-xx-4/5-5-xxx-4/5-4/5--|
B--8--x-8--xx-8-x-8-8--xx-4/5-5-xxx-4/5-4/5--|
G--9--x-9--xx-7-x-7-7--xx-4/5-5-xxx-4/5-4/5--|
D--10-x-10-xx-9-x-9-9--xx-6/7-7-xxx-6/7-6/7--|
A--10-x-10-xx-7-x-7-7--xx-6/7-7-xxx-6/7-6/7--|
E--8--x-8--xx-------------4/5-5-xxx-4/5-4/5--|

e--8--x-8--xx-7-x-7-10-xx-4/5-5---------|
B--8--x-8--xx-8-x-8-8--xx-4/5-5-----5---|
G--9--x-9--xx-7-x-7-7--xx-4/5-5----5-5--|
D--10-x-10-xx-9-x-9-9--xx-6/7-7-5h7-----|
A--10-x-10-xx-7-x-7-7--xx-6/7-7---------|
E--8--x-8--xx-------------4/5-5---------|

Chorus/Verse (2nd half)

e--8-x-8-xx-7-x-7-10-xx-4/5-5-xxx-4/5-4/5--|
B--8-x-8-xx-8-x-8-8--xx-4/5-5-xxx-4/5-4/5--|
G--9-x-9-xx-7-x-7-7--xx-4/5-5-xxx-4/5-4/5--|
D------------------------------------------|
A------------------------------------------|
E------------------------------------------|

e--8-x-8-xx-7-x-7-10-xx-4/5-5-xxx-4/5-4/5--|
B--8-x-8-xx-8-x-8-8--xx-4/5-5-xxx-4/5-4/5--|
G--9-x-9-xx-7-x-7-7--xx-4/5-5-xxx-4/5-4/5--|
D------------------------------------------|
A------------------------------------------|
E------------------------------------------|

e--8-x-8-xx-7-x-7-10-xx-4/5-5-xxx-4/5-4/5--|
B--8-x-8-xx-8-x-8-8--xx-4/5-5-xxx-4/5-4/5--|
G--9-x-9-xx-7-x-7-7--xx-4/5-5-xxx-4/5-4/5--|
D------------------------------------------|
A------------------------------------------|
E------------------------------------------|

e--8-x-8-xx-7-x-7-10-xx-4/5-5-----------|
B--8-x-8-xx-8-x-8-8--xx-4/5-5------5----|
G--9-x-9-xx-7-x-7-7--xx-4/5-5-----5-5---|
D-----------------------------5h7-------|
A---------------------------------------|
E---------------------------------------|

                 or

e--8--x-8--xx-7-x-7-10-xx-4/5-5-xxx-4/5-4/5--|
B--8--x-8--xx-8-x-8-8--xx-4/5-5-xxx-4/5-4/5--|
G--9--x-9--xx-7-x-7-7--xx-4/5-5-xxx-4/5-4/5--|
D--10-x-10-xx-9-x-9-9--xx-6/7-7-xxx-6/7-6/7--|
A--10-x-10-xx-7-x-7-7--xx-6/7-7-xxx-6/7-6/7--|
E--8--x-8--xx-------------4/5-5-xxx-4/5-4/5--|

e--8--x-8--xx-7-x-7-10-xx-4/5-5-xxx-4/5-4/5--|
B--8--x-8--xx-8-x-8-8--xx-4/5-5-xxx-4/5-4/5--|
G--9--x-9--xx-7-x-7-7--xx-4/5-5-xxx-4/5-4/5--|
D--10-x-10-xx-9-x-9-9--xx-6/7-7-xxx-6/7-6/7--|
A--10-x-10-xx-7-x-7-7--xx-6/7-7-xxx-6/7-6/7--|
E--8--x-8--xx-------------4/5-5-xxx-4/5-4/5--|

e--8--x-8--xx-7-x-7-10-xx-4/5-5-xxx-4/5-4/5--|
B--8--x-8--xx-8-x-8-8--xx-4/5-5-xxx-4/5-4/5--|
G--9--x-9--xx-7-x-7-7--xx-4/5-5-xxx-4/5-4/5--|
D--10-x-10-xx-9-x-9-9--xx-6/7-7-xxx-6/7-6/7--|
A--10-x-10-xx-7-x-7-7--xx-6/7-7-xxx-6/7-6/7--|
E--8--x-8--xx-------------4/5-5-xxx-4/5-4/5--|

e--8--x-8--xx-7-x-7-10-xx-4/5-5---------|
B--8--x-8--xx-8-x-8-8--xx-4/5-5-----5---|
G--9--x-9--xx-7-x-7-7--xx-4/5-5----5-5--|
D--10-x-10-xx-9-x-9-9--xx-6/7-7-5h7-----|
A--10-x-10-xx-7-x-7-7--xx-6/7-7---------|
E--8--x-8--xx-------------4/5-5---------|

Pre-Verse (piano/synth)

e-----8~-----------8~-----------8~-------------------|
B------------------------------------------------5---|
G--5~----5h75h7-5~----5h75h7-5~----5h75h7-5~----5-5--|
D--------------------------------------------5h7-----|
A----------------------------------------------------|
E----------------------------------------------------|

9/17/12

Tabbed by X8<-(Triggar8)->8X
Tap to rate this tab
# A B C D E F G H I J K L M N O P Q R S T U V W X Y Z