Song name
# A B C D E F G H I J K L M N O P Q R S T U V W X Y Z

Takako Minekawa - Clover tab

-------------------------------------------------------------------------------
			     Takako Minekawa - Clover
-------------------------------------------------------------------------------
http://en.wikipedia.org/wiki/Takako_Minekawa

Tabbed by:lovelylight
Album: Chat Chat
Tuning:EADGBe


woah a easier tab than a Nirvana song

   D
e|-----------------2-------------------------------------2-------------------|
B|---------3-----------3----------------------3---------------3--------------|
G|------------2------------2------------------------2---------------2--------|
D|----0-------------------------------0--------------------------------------|
A|---------------------------------------------------------------------------|
E|---------------------------------------------------------------------------|


    Gmaj7
e|-----------------------2--------------------------------------2------------|
B|-------------0---------------0--------------------0-----------------0------|
G|------------------0----------------0--------------------0----------------0-|
D|------------------------------------------0--------------------------------|
A|---------------------------------------------------------------------------|
E|-----3---------------------------------------------------------------------|

well thats it. just keep repeating these two chords.
i dont know what the hell o kitty she is singing about
something about a clover being a good luck charm and the rest in Nippon 
Tap to rate this tab
# A B C D E F G H I J K L M N O P Q R S T U V W X Y Z