Song name
# A B C D E F G H I J K L M N O P Q R S T U V W X Y Z

Takako Minekawa - 1666666 tab

-------------------------------------------------------------------------------
			     Takako Minekawa - 1.666666
-------------------------------------------------------------------------------
Tabbed by:Lovelylight
Album: Roomic Cube
Tuning:EADGBe

Guitar doesnt do much on this song. it has alot of synth going on



     This pretty much plays the whole song. keep repeating

   ............Watashi....................
e|---------------------------------------------------------------------------|
B|---------------------------------------------------------------------------|
G|---------------------------------------------------------------------------|
D|---------------------------------------------------------------------------|
A|---------------------5---------3--------------------------5---------3------|
E|--1---------5--------------------------1---------5-------------------------|


Until......
F     G    C      C    G    F    F   G   C     C   G   F
1.666666666666666666666666666666666666 1.6666666666666666666

  Repeat to finish song
e|---------------------------------------------------------------------------|
B|---------------------------------------------------------------------------|
G|---------------------------------------------------------------------------|
D|---------------------------------------------------------------------------|
A|---------------------5---------3--------------------------5---------3------|
E|--1---------5--------------------------1---------5-------------------------|
Tap to rate this tab
 
# A B C D E F G H I J K L M N O P Q R S T U V W X Y Z