Song name
# A B C D E F G H I J K L M N O P Q R S T U V W X Y Z

Takashi Kondo - Sakura Addiction tab

Song: Sakura Addiction from Katekyo Hitman REBORN! (\m/)
Takashi Kondo/Hibari Kyoya and Toshinobu Iida/Rokudo Mukuro version

Intro

e|------------------------------|
B|-12--10-------12--10----------|
G|--------121212------1212121212|
D|------------------------------|
A|------------------------------|
E|------------------------------|

e|------------------------------|
B|-12--10-------12--10----------|
G|--------121212------1212121212|
D|------------------------------|
A|------------------------------|
E|------------------------------|

e|----------------------------|
B|-12--10---------------------|
G|--------121212--11111111-12-|
D|----------------------------|
A|----------------------------|
E|----------------------------|
*11111111 = (11-11-11-11), not (1-1-1-1-1-1-1-1)

e|------------------101010101010|
B|-12--10--------10-------------|
G|--------121212----------------|
D|------------------------------|
A|------------------------------|
E|------------------------------|

and then repeat twice :)
Tap to rate this tab
# A B C D E F G H I J K L M N O P Q R S T U V W X Y Z