Song name
# A B C D E F G H I J K L M N O P Q R S T U V W X Y Z

Takayoshi Ohmura - Night Of Usa tab

Young Guitar Spotlight Live in Tokyo Vol.5 on 2007/08/21

The Night of USA intro

http://www.youtube.com/watch?v=G2uXwxpz3aQ

Played one half step down. Tuning: Eb Ab Db Gb Bb Eb


e------------------------------------------|
b------------------------------------------|
g------------------------------------------|
d-----------9---10-9-7--------9---10-9-7---|
a---3/7---7---7-----------------7----------|
e-----------------------8---8--------------|

e------------------------------------|
b------------------------10----10----|
g----------------------9----11----11-|
d-------7----5p4-----9---------------|
a----------7-----4/9-----------------|
e--3---3-----------------------------|

e-----------------------------------------------|
b-----------------------------------------------|
g-----------------------------------------------|
d---------9---10-9-7--------7---5-------5---4---|
a---7---7---7-----------------7-----7---5---5---|
e---------------------8---8---------------------|

e---------------|
b---------------|
g---------------|
d---------------| And it loops to the beginning
a---------5-----|
e---5--7--------|

After three times through, it goes

e---------------------------------------------|
b-----------------8-7h8-7-7h8-7--7-7h8-7-7h8--|
g-----------------7-7---7-7---7--7-7---7-7----|
d---------------------------------------------|
a---------5---7-------------------------------|
e---5--7--------------------------------------|
Tap to rate this tab
 
# A B C D E F G H I J K L M N O P Q R S T U V W X Y Z