Song name
# A B C D E F G H I J K L M N O P Q R S T U V W X Y Z

Take That - Patience tab

-------------------------------------------------------------------------------
			     PATIENCE - Take That
-------------------------------------------------------------------------------
Tabbed by: Jdrulezx
Email: jade4everyone@hotmail.com

Tuning: Standard

Hopefully I got it right i avent got mi guitar with me.
If im wrong comment me.

e|--------------------1-----------1-----------1------------------------------|
B|-----------------------1-----------1-----------1---------------------------|
G|---------3------3------------3-----------2---------------------------------|
D|--------------------------1-----------3------------------------------------|
A|-----5------1--------------------------------------------------------------|
E|--3------------------------------------------------------------------------|
Tap to rate this tab
 
# A B C D E F G H I J K L M N O P Q R S T U V W X Y Z