Guitaretab - guitar tabs
Song name
# A B C D E F G H I J K L M N O P Q R S T U V W X Y Z

Take That - Eight Letters tab

Band:Take That
Song:Eight Letters
Tabbed/Chord by:ZuesSkywalker
This is kinda my first tab/chord..so hope u guys enjoy it :D

Intro,verse 1,verse 2,Before Bridge

e---2-----2------2-----2-----2-----2-----2-----2------|
B-----3-----3------3-----3-----3-----3-----3-----3----|
G-2-----2------2-----2-----0-----0-----0-----0--------| 
D-----------------------------------------------------|
A-----------------------------------------------------|
E-----------------------------------------------------|

e---3-----3------3-----3-----2-----2-----2-----2------|
B-----2-----0------2-----0-----3-----3-----3-----3----|
G-2-----2------2-----2-----2-----2-----2-----2--------| 
D-----------------------------------------------------|
A-----------------------------------------------------|
E-----------------------------------------------------|

Chorus:
[ Tab from: http://www.guitaretab.com/t/take-that/257531.html ]
                           D                           
This is all that matters now
                                   G        
And that was all that happened anyhow
                               A
You can look back but dont stare
                             D       
Maybe I can love you out of there


            G       D          G       D
And when I went away what I forgot to say
            G     D
Was all I had to say:
         G            A           D
Eight letters, three words, one meaning

Bridge:

D                            G
At last, we meet on no mans land
                       A
Just footprints in the sand
                    D
We meet on no mans land, at last

Final part after Bridge:

            G       D          G       D
And when I went away what I forgot to say
            G      D
Was all I had to say:
         G            A            D
Eight letters, three words, one meaning


            G       D          G       D
And when I went away what I forgot to say
            G      D
Was all I had to say:
         G            A            D
Eight letters, three words, one meaning

G  D  G  D  G  D  G  A  D
         Just One Meaning
Related for Eight Letters tab
Eight Letters chords by Take That