Song name
# A B C D E F G H I J K L M N O P Q R S T U V W X Y Z

Take The Throne - Legacy tab

take the throne tab
link to song: http://www.youtube.com/watch?v=xvZvxKRfN3o


Tuning:CACFAD (DROP C)




D|---------------------------------------------------------------------------|
A|---------------------------------------------------------------------------|
F|---------------------------------------------------------------------------|
C|------7--8-7---------------------------------------------0~----------------|
G|--5-8--8-----4-5-4-1-0-1-0-7-8-7-5-4---------------------0~----------------|
C|---------------------------------------------------------0~----------------|
Ap....................................   X4        end with

D|----------------------------------------------------------------------------|
A|----------------------------------------------------------------------------|
F|----------------------------------------------------------------------------|
C|--------7--------7--------------7--8p7--------------------------------------|
G|-----5h8------5h8------------5h8------5h7-7h8-------8p7---8p7------8p7------|
C|--000----000-0----0000-00-000-----------------888-88---888---888-88---------|

D|--------------------------------------------------------------------------|
A|--------------------------10----------------------------------------------|
F|-----------------10-10p9-9------------------------------------------------|
C|-------8p7----7h8---------------------------------------------------------|
G|--------------------------------------------------------------------------|
C|-777-77---777------0------------------------------------------------------|
                                 X2
D|--------------------------------------------------------------------------|
A|--------------------------------------------------------------------------|
F|--------------------------------------------------------------------------|
C|---------8p7------8p7---5h7-----------------------------------------------|
G|---------------------------------7h8--------------------------------------|
C|--000-000---000-00---000---000-00----000-5h7h8-7h8h10-8h10h12-------------|
                                                                X6

        *BreakDown*
D|--------------------------------------------------------------------------|
A|--------------------------------------------------------------------------|
F|--------------------------------------------------------------------------|
C|--------------------------------------------------------------------------|
G|-000-000---------0-00000-0000-00000---------------------------------------|
C|-000-000-0-0-0-0-0-00000-0000-00000---------------------------------------|
pm ... ...         . ..... .... ..... X4


|---------------------------------------------------------------------------|
A|--------------------------------------------------------------------------|
F|--------------------------------------------------------------------------|
C|------7--8-7--------------------------------------------------------------|
G|--5-8--8-----4-5-4-1-0-1-0-7-8-7-5-4--------------------------------------|
C|--------------------------------------------------------------------------|
Ap....................................


i will tab the rest of the song later
Tap to rate this tab
# A B C D E F G H I J K L M N O P Q R S T U V W X Y Z