Song name
# A B C D E F G H I J K L M N O P Q R S T U V W X Y Z

Takeharu Ishimoto - The Price Of Freedom tab

-----------------------------------------------------------------------------
			The Price Of Freedom  Takeharu Ishimoto
-----------------------------------------------------------------------------
Tabbed by: Wierdbloodspot (Robert Faulkner)
Email: rfaulkner25@live.com

Tuning: Standard (E,A,D,G,B,e)


Gtr. 1 Intro Acoustic (Played throughout song)
e|-0---0-0-0--0----------------3---3-3-3--0---0-0--3-0-2-0------|
B|-0---0-0-0--1---1-1-1-1-1-1-0---0-0-0--0---0-0-3-3-3-3------|
G|-0---0-0-0--0---0-0--0-0-0-0-0---0-0-0--0---0-0--2-2-2-2------|
D|-2---2-2-2--2---2-2--2-2-2-2-0---0-0-0--2---2-2--0-0-0-0------|
A|-2--2-2-2--3---3-3--3-3-3-3-2---2-2-2--2---2-2---------------|
E|-0---0-0-0--3----------------3---3-3-3-0---0-0---------------|

Gtr. 2 Acoustic
e|------------------------------------------|
B|--8-1010/12--13-8----8-10-10/12-10--8-7--|
G|------------------------------------------|
D|------------------------------------------|
A|------------------------------------------|
E|------------------------------------------|

Gtr. 3 Acoustic (Played at the end of each part for the last two parts!!)
e|--3-55/7--5-3-2-|
B|-----------------|
G|-----------------|
D|-----------------|
A|-----------------|
E|-----------------|

Gtr. 3 Electric (Probably need a foot pedal for Gtr. 2 & Gtr. 3)
e|----------------------------|
B|----------------------------|
G|--x-9--9-9\5-------9--9-9\5-|
D|--x-9--9-9\5-5-5---9--9-9\5-|
A|--x-7--7-7\3-5-5---7--7-7\3-|
E|-------------3-3------------|
  * no palm mute & let notes ring

Gtr. 2 Electric
e|--------------------------------------------------------------------------|
B|--------------------------------------------------------------------------|
G|-------------12-14-----------------------12-14----12b---------------------|
D|-------12-14-------14-12-----------12-14-------14-------------------------|
A|-12-14-----------------------12-14----------------------------------------|
E|--------------------------------------------------------------------------|

************************************

| /   slide up
| \   slide down
| h   hammer-on
| p   pull-off
| ~   vibrato
Tap to rate this tab
 
# A B C D E F G H I J K L M N O P Q R S T U V W X Y Z