Takeharu Ishimoto - Soldier Battle tab

This is a really beast song from Final Fantasy 7 Crisis Core and its pretty easy to learn too

http://www.youtube.com/watch?v=q47iesfPbgs  this is the video i based my time s off for this tab

First person to tab this song as far as i know of since i haven't found tabs 
anywhere for this so sweet!!!

2 guitars, guitar 2 has a slight flange or phasor effect

Guitar 1  0:05

E---------------------------|    
B---------------------------|
G---------------------------|
D-xx--x--x--x--xx--x--x--x--|
A-xx--x--x--x--xx--x--x--x--|
D-xx--x--x--x--xx--x--x--x--|

Guitar 2 comes in at 0:13

E---------------------------------------|
B---------------------------------------|
G--5s77757------------5s7757------------|
D----------5-77s8s7----------5-77s8s7---|
A---------------------------------------|
D---------------------------------------|

Guitar 1 joins in with guitar 2 at 0:20

E----------------------------------------|
B----------------------------------------|
G--5s77757------------5s77757------------|
D----------5-77s8s7-----------5-77s8s7---|
A----------------------------------------|
D----------------------------------------|

Guitar 1  0:28

E----------------------------|  x8
B----------------------------|
G----------------------------|
D----------------------------|
A----------------------------|
D--0--350--05--650003s5b-----|

Guitar 2 comes back in at 0:43

E-------------------------------------------------------|  x2
B-------------------------------------------------------|
G--7--10-12-7---7-------10b---7--10-12-7---7------------|
D-----------------10-99----------------------10-99-7b---|
A-------------------------------------------------------|
D-------------------------------------------------------|

Guitar 2  0:58

E-=---------------------------------------| x4
B-----------------------------------------|
G-----------------------------------------|
D-----------------------------------------|
A-----------------------------------------|
D--0-10-12---12---12-0--10-13---15---15---|

Guitar 1  1:14

E--------------------|  x3
B--------------------|
G--------------------|
D--566-5--0--0--3333-|
A--566-5--0--0--3333-|
D--566-5--0--0--3333-|

E-------------------|  
B-------------------|
G-------------------|
D--566-5--0-xxxxxxx-|
A--566-5--0-xxxxxxx-|
D--566-5--0-xxxxxxx-|


Afterwards the song basically repeats the same except for the end there 
is an extra guitar part playing along side guitar 1

Guitar 1  2:31

E--------------------|  x3
B--------------------|
G--------------------|
D--566-5--0--0--3333-|
A--566-5--0--0--3333-|
D--566-5--0--0--3333-|

E-------------------|  
B-------------------|
G-------------------|
D--566-5--0-xxxxxxx-|
A--566-5--0-xxxxxxx-|
D--566-5--0-xxxxxxx-|


Guitar 2   2:31

E-------------------------------------------------|
B-------------------------------------------------|
G-------------------------------------------------|
D--12---10---10-9-9-7-7-5---12---10---10-9---12---|
A-------------------------------------------------|
D-------------------------------------------------|

E---------------------------------------------|
B---------------------------------------------|
G---------------------------------------------|
D--12---10---10-9-9-7-7-5---12---10---15b-----|
A---------------------------------------------|
D---------------------------------------------|

So ya this is how i play the song with my friends so i hope you enjoyed 
this tab and found it helpful. Also even though i only marked a couple 
bends in this tab theres a lot of bending required in this song so make 
sure to listen to the music for that because the bending really makes it 
a lot cooler.

legend
s-slide
b-bend/wiggle
x-open palm mute
Tap to rate this tab
 
# A B C D E F G H I J K L M N O P Q R S T U V W X Y Z