Song name
# A B C D E F G H I J K L M N O P Q R S T U V W X Y Z

Takeharu Ishimoto - Those Who Accept The Protection Of The Stars tab

Another tab of another beast Crisis Core song
http://www.youtube.com/watch?v=2Fu7TekEY2I&feature=related
video for this tabs timing, spent longer than i expected
on this song since i wanted to get it as accurate as possible
hope everyone finds this helpful

Guitar 1  0:04

E--------------------------------|  x8
B--------------------------------|
G--------------------------------|
D--3-0---5---0---0-6-8-8-10-10---|
A--3-0---5---0---0-6-8-8-10-10---|
D--3-0---5---0---0-6-8-8-10-10---|

Keep your finger on the frets and slide down back to 3 from 
10 when returning to strum the 3rd fret once repeating

Guitar 2 comes in with this at 0:16

E-----------------------------------------|  x2
B-----------------------------------------|
G-----------------------------------------|
D--12-14--14s15----14---12-14-12----s10---|
A-----------------------------------------|
D-----------------------------------------|

Guitar 1  0:28

E--------------------------|   x7
B--------------------------|
G--------------------------|
D--0---3---5---0---5-6-5---|
A--0---3---5---0---5-6-5---|
D--0---3---5---0---5-6-5---|


E---------------------------|
B---------------------------|
G---------------------------|    
D--0---3---5---0---x-x-x-x--|    
A--0---3---5---0---x-x-x-x--|    
D--0---3---5---0---x-x-x-x--|  

you donít actually have to play the palm mutes I just play it
like this because I think it sounds cooler, if you donít play
them simply deaden the strings after playing the open chord
and letting it ring the appropriate amount of time

Guitar 2  comes back in at 0:40

E-----------------------------------|  x2
B-----------------------------------|
G------------------------------12---|
D--12s15--14--12---12s15--14--------|
A-----------------------------------|
D-----------------------------------|

Guitar 1   0:52

E-----------------------------------------------|  x4
B-----------------------------------------------|
G-----------------------------------------------|
D--5--3--3-5--5--5---5-6--6--6-8--8-8--8s6-6s5--|
A--5--3--3-5--5--5---5-6--6--6-8--8-8--8s6-6s5--|
D--5--3--3-5--5--5---5-6--6--6-8--8-8--8s6-6s5--|

Guitar 2 

E------------------------------------------|
B------------------------------------------| x2
G------------------------------------------|
D--5--3--5--3--3s1b---5--3--5--3--5s8-8b---|
A------------------------------------------|
D------------------------------------------|

E-----------------------------|
B-----------------------------|
G--12--15-17-12----10--8b-----|  x2
D-----------------------------|
A-----------------------------|
D-----------------------------|


Guitar 1  1:16

E--------------------------------|  x2
B--------------------------------|
G--------------------------------|
D--3-0---5---0---0-6-8-8-10-10---|
A--3-0---5---0---0-6-8-8-10-10---|
D--3-0---5---0---0-6-8-8-10-10---|

Guitar 2

E-----------------------------|
B-----------------------------|
G--12--15-17-12----10--8b-----|  
D-----------------------------|
A-----------------------------|
D-----------------------------|


The rest of the song is pretty much the same as the beginning,
the only difference is the end of the first repeat which lasts
longer on the

E-----------------------------------------------|
B-----------------------------------------------|
G-----------------------------------------------|
D--5--3--3-5--5--5---5-6--6--6-8--8-8--8s6-6s5--|
A--5--3--3-5--5--5---5-6--6--6-8--8-8--8s6-6s5--|
D--5--3--3-5--5--5---5-6--6--6-8--8-8--8s6-6s5--|

E-----------------------------|
B-----------------------------|
G--12--15-17-12----10--8b-----|  
D-----------------------------|
A-----------------------------|
D-----------------------------|

part. However the second repeat is exactly the same as the first 
run through of the song.
Tap to rate this tab
 
# A B C D E F G H I J K L M N O P Q R S T U V W X Y Z