Takeharu Ishimoto - Soldier Battle tab

Crisis Core: Final Fantasy VII
SOLDIER Battle by Takeharu Ishimoto

This is all by ear and it's more correct than my YouTube cover video.


Tuning is drop D

|-------------------------------------------------|
|-------------------------------------------------|
|-------------------------------------------------|
|-0-0--0-0-0--0-0--0-0-0--0-0--0-0-0--0-0--0-0-0--|
|-0-0--0-0-0--0-0--0-0-0--0-0--0-0-0--0-0--0-0-0--|
|-0-0--0-0-0--0-0--0-0-0--0-0--0-0-0--0-0--0-0-0--|
PM..............................................

play this 4x
|----------------------|
|----------------------|
|-7-7-7-5-7------------|
|------------5-7-8-7~--|
|----------------------|
|----------------------|

play this 4x
|--------------------------|
|--------------------------|
|--------------------------|
|--------------------------|
|--------------------------|
|-0-3-5-0-0-5-6-5-3-0-0-3--|

play this 2x
|-------------------------------------------------|
|----6-8-----------------------6-8----------------|
|-/7-----7~-5-4-5-4-5/10~---/7-----7~-5-4-5-4-----|
|---------------------------------------------7~--|
|-------------------------------------------------|
|-------------------------------------------------|

play this 4x
|----------------------|
|----------------------|
|----------------------|
|----------------------|
|---3-5-5-5---3-6-8-8--|
|-0---------0----------|


|-------------------------------------------------------------------------|
|-------------------------------------------------------------------------|
|-------------------------------------------------------------------------|
|-5-6-5-0-0-3-3-3--5-6-5-0-0-3-3-3--5-6-5-0-0-3-3-3--5-6-5-0-0-0-0-0-0-0--|
|-5-6-5-0-0-3-3-3--5-6-5-0-0-3-3-3--5-6-5-0-0-3-3-3--5-6-5-0-0-0-0-0-0-0--|
|-5-6-5-0-0-3-3-3--5-6-5-0-0-3-3-3--5-6-5-0-0-3-3-3--5-6-5-0-0-0-0-0-0-0--|
                                                          PM............

play this 4x
|----------------------|
|----------------------|
|-7-7-7-5-7------------|
|------------5-7-8-7~--|
|----------------------|
|----------------------|

play this 4x
|--------------------------|
|--------------------------|
|--------------------------|
|--------------------------|
|--------------------------|
|-0-3-5-0-0-5-6-5-3-0-0-3--|

play this 2x
|-------------------------------------------------|
|----6-8-----------------------6-8----------------|
|-/7-----7~-5-4-5-4-5/10~---/7-----7~-5-4-5-4-----|
|---------------------------------------------7~--|
|-------------------------------------------------|
|-------------------------------------------------|


play this 4x
|----------------------|
|----------------------|
|----------------------|
|----------------------|
|---3-5-5-5---3-6-8-8--|
|-0---------0----------|

|----------------------------------------------------|
|----------------------------------------------------|
|-/7~-5-4-------/7~-5-4-7~--/7~-5-4-------/7~-5/10~--|
|---------7-5~----------------------7-5~-------------|
|----------------------------------------------------|
|----------------------------------------------------|


key
/ slide up
~ vibrato
Tap to rate this tab
 
# A B C D E F G H I J K L M N O P Q R S T U V W X Y Z