Song name
# A B C D E F G H I J K L M N O P Q R S T U V W X Y Z

Taken By Cars - A Weeknight Memoir In High Definition tab

Standard Tuning

Verse
Chords:
C5 - Bb - G# - G - Bb
Guitar 1

E|--------------------------8--|
B|----------------8--8--11-----|
G|----------8--8---------------| 16x
D|--10--10---------------------|
A|-----------------------------|
E|-----------------------------|

Guitar 2

E|------------------------------|
B|----------8--8----------------|
G|----------------10--10--8--8--|
D|--10--10----------------------|
A|------------------------------|
E|------------------------------|

Chorus:
chords: Eb5 - F - C (4x)

E|------------|
B|--11--9--8--|
G|------------| 5x
D|------------|
A|------------|
E|------------|

E|------------|
B|------9--8--|
G|--10--------| 5x
D|------------|
A|------------|
E|------------|

E|--11--10--8--|
B|-------------|
G|-------------| 5x
D|-------------|
A|-------------|
E|-------------|

E|--13--11--10--|
B|--------------|
G|--------------| 5x
D|--------------|
A|--------------|
E|--------------|

Adlib
Chords:
The same with Verse 5x (C5 - Bb - G# - G - Bb)
then back to chorus chords 4x (Eb5 - F - C)
and then backk to verse chords except for the last key it should be C
Tap to rate this tab
# A B C D E F G H I J K L M N O P Q R S T U V W X Y Z