Song name
# A B C D E F G H I J K L M N O P Q R S T U V W X Y Z

Taken By Trees - Sweet Child Of Mine chords

Highlighted       Show chord diagrams
Sweet Child o Mine
by 
Taken by the Trees
http://www.myspace.com/takenbytreesmusic

My interperation trying to follow the playing pattern, by Sprobe:

capo 3rd fret

Chords
======

G
She's got a smile that it seems to me

F
Reminds me of childhood memories

C                                             G
Where everything was as fresh as the bright blue sky

G
Now and then when I see her face

F
She takes me away to that special place

C                                             G
And if I stare too long, I'd probably break down and cry

D       F                   G
Whoa, oh, oh, sweet child o' mine

D       F                   G
Whoa, oh, oh, oh, sweet love of mine


Simple picking pattern
======================

e-------------------------------------------------------|
B-------------------------------------------------------|
G-----0-------0-------0-------0-------------------------|
D---------0-------0-------0-------0---------------------|
A-------2-------2-------2-------2-----------------------|
E---3-------3-------3-------3---------------------------|

e-------------------------------------------------------|
B-------------------------------------------------------|
G-----2-------2-------2-------2-------------------------|
D---------3-------3-------3-------3---------------------|
A-------3-------3-------3-------3-----------------------|
E---1-------1-------1-------1---------------------------|

e-------------------------------------------------------|
B-----1-------1-------1-------1-------------------------|
G---------0-------0-------0-------0---------------------|
D-------2-------2-------2-------2-----------------------|
A---3-------3-------3-------3---------------------------|
E-------------------------------------------------------|
Tap to rate this tab
# A B C D E F G H I J K L M N O P Q R S T U V W X Y Z