Taketh - Ignore tab

-------------------------------------------------------------------------------
			     Ignore - Taketh
-------------------------------------------------------------------------------
Tabbed by: maglehtim
Email: maglehtim@gmail.com

Tuning: Drop D


(0:00 - 0:18)
D|---------------------------------------------------------------------------|
A|---------------------------------------------------------------------------|
F|---------------------------------------------------------------------------|
C|---------------------------------------------------------------------------|x4
G|------5-----7-----8---7--10---8~-----5-----7-----8-8-7-7-5-5-4-4-----------|
C|--0-0---0-0---0-0---0--0----0----0-0---0-0---0-0---------------------------|
PM  . .   . .   . .   .  .    .    . .   . .   . .

(0:18 - 0:27) I'm not quite sure about this part, but it might be something like this 
(if this doesnt sound right to you then improvise on ur own)
              Atleast I'm pretty sure he's Tremolo picking.
D|---------------------------------------------------------------------------|
A|---------------------------------------------------------------------------|
F|---------------------------------------------------------------------------|
C|---------------------------------------------------------------------------|x2
G|--#5--#7--#8--#10--#8--#7--#8--#5--#7--#8--#12--#10--#8--#7--#5------------|
C|---------------------------------------------------------------------------|
PM   .   .   .   .    .   .   .   .   .   .    .    .   .   .   .

(0:27 - 0:36)
D|---------------------------------------------------------------------------|
A|---------------------------------------------------------------------------|
F|---------------------------------------------------------------------------|
C|---------------------------------------------------------------------------|x2
G|------5-----7---8---7---10---8~------5-----7-----8-8-7-7-5-5-4-4-----------|
C|--0-0---0-0---0---0---0----0-----0-0---0-0---0-0---------------------------|
PM  . .   . .   .   .   .    .     . .   . .   . .


(0:36 - 0:53)
D|---------------------------------------------------------------------------|
A|---------------------------------------------------------------------------|
F|---------------------------------------------------------------------------|
C|---------------------------------------------------------------------------|x2
G|---0~-00-0-1-3-5-7-0~-00-0-1-3-5-7-0~-00-0-1-3-5-7-0~-00-0-7-3-0~----------|
C|---0~-00-0-1-3-5-7-0~-00-0-1-3-5-7-0~-00-0-1-3-5-7-0~-00-0-7-3-0~----------|
PM      .. .            .. .            .. .            .. .

(0:53 - 1:10)
D|---------------------------------------------------------------------------|
A|---------------------------------------------------------------------------|
F|---------------------------------------------------------------------------|
C|---------------------------------------------------------------------------|x7
G|---000000-0h3-0h3-1-0------------------------------------------------------|
C|---000000-0h3-0h3-1-0------------------------------------------------------|
PM   ......

(1:10 - 1:11)
D|---------------------------------------------------------------------------|
A|---------------------------------------------------------------------------|
F|---------------------------------------------------------------------------|
C|---------------------------------------------------------------------------|x1
G|---000000-5/7-3-0~---------------------------------------------------------|
C|---000000-5/7-3-0~---------------------------------------------------------|
PM   ......


(1:11 - 1:20 I'm not quite sure about this part, but it might be something like this (if 
this doesnt sound right to you then improvise on ur own)
D|---------------------------------------------------------------------------|
A|---------------------------------------------------------------------------|
F|---------------------------------------------------------------------------|
C|---------------------------------------------------------------------------|x2
G|--#5--#7--#8--#10--#8--#7--#8--#5--#7--#8--#12--#10--#8--#7--#5------------|
C|---------------------------------------------------------------------------|
PM   .   .   .   .    .   .   .   .   .   .    .    .   .   .   .

(1:20 - 1:28)
D|---------------------------------------------------------------------------|
A|---------------------------------------------------------------------------|
F|---------------------------------------------------------------------------|
C|---------------------------------------------------------------------------|x2
G|------5-----7-----8---7---10---4~------5-----7-----8---7---10---12~--------|
C|--0-0---0-0---0-0---0---0----0-----0-0---0-0---0-0---0---0----0------------|
PM  . .   . .   . .   .   .    .     . .   . .   . .   .   .    .

(1:28 - 1:46)
D|---------------------------------------------------------------------------|
A|---------------------------------------------------------------------------|
F|---------------------------------------------------------------------------|
C|---------------------------------------------------------------------------|x2
G|---0~-00-0-1-3-5-7-0~-00-0-1-3-5-7-0~-00-0-1-3-5-7-0~-00-0-7-3-0~----------|
C|---0~-00-0-1-3-5-7-0~-00-0-1-3-5-7-0~-00-0-1-3-5-7-0~-00-0-7-3-0~----------|
PM      .. .            .. .            .. .            .. .

(1:46 - 2:01)
D|---------------------------------------------------------------------------|
A|---------------------------------------------------------------------------|
F|---------------------------------------------------------------------------|
C|---------------------------------------------------------------------------|x7
G|---000000-0h3-0h3-1-0------------------------------------------------------|
C|---000000-0h3-0h3-1-0------------------------------------------------------|
PM   ......

(2:01 - 2:04)
D|---------------------------------------------------------------------------|
A|---------------------------------------------------------------------------|
F|---------------------------------------------------------------------------|
C|---------------------------------------------------------------------------|x1
G|---000000-5/7-3-0~---------------------------------------------------------|
C|---000000-5/7-3-0~---------------------------------------------------------|
PM   ......

(2:04 - 2:16)
D|---------------------------------------------------------------------------|
A|---------------------------------------------------------------------------|
F|---------------------------------------------------------------------------|
C|---------------------------------------------------------------------------|x3
G|------5-----7-----8---7--10---8~-----5-----7-----8-8-7-7-5-5-4-4-----------|
C|--0-0---0-0---0-0---0--0----0----0-0---0-0---0-0---------------------------|
PM  . .   . .   . .   .  .    .    . .   . .   . .

(2:16 - 2:22)
D|---------------------------------------------------------------------------|
A|---------------------------------------------------------------------------|
F|---------------------------------------------------------------------------|
C|---------------------------------------------------------------------------|x1
G|------5-----7-----8---7--10---8~-----8---8-----10-10-8-8-7-7-5-5-4-4-5-----|
C|--0-0---0-0---0-0---0--0----0----0-0---0---0-0-----------------------------|
PM  . .   . .   . .   .  .    .    . .   .   . .

************************************

| /   slide up
| \   slide down
| h   hammer-on
| p   pull-off
| ~   sustain
| +   harmonic
| x   Mute note
| b   Bend
| pb  Pre-bend
| br  Bend release
| pbr Pre-bend release
| brb Bend release bend
| T   Tap
| #   Tremolo Picking
| v   Vibrato
************************************
http://www.myspace.com/taketh
Tap to rate this tab
 
# A B C D E F G H I J K L M N O P Q R S T U V W X Y Z