Song name
# A B C D E F G H I J K L M N O P Q R S T U V W X Y Z

Takida - As You Die tab



tAKiDA - As You Die



Intro
e|--------------------------------------------------------------------------|
B|--7-----7-----7-----7-----8-----8-----8-----8-----------------------------|
G|-----7-----7-----7-----7-----7-----7-----7------7-------------------------|
D|--------------------------------------------------------------------------|
A|--------------------------------------------------------------------------|
E|--------------------------------------------------------------------------|
  x2

e|--------------------------------------------------------------------------|
B|--7-----7-----7-----7-----10----10----10-----10---------------------------|
G|-----7-----7-----7-----7-----9-----9-----9------9-------------------------|
D|--------------------------------------------------------------------------|
A|--------------------------------------------------------------------------|
E|--------------------------------------------------------------------------|

e|--------------------------------------------------------------------------|
B|--------------------------------------------------------------------------|
G|---11--9--7/4-----11--9--7/9-----11--9--7/9--11/9-------------------------|
D|--------------------------------------------------------------------------|
A|--------------------------------------------------------------------------|
E|--------------------------------------------------------------------------|

Verse
e|---------------------------------------------------------|--------|
B|-------0---------0--------0----------0-------------------|--------|
G|---------------------------------------------------------|--------|
D|----4---------4--------4----------4----------------------|------5-|
A|--2------------------2-----------------------------------|----5---|
E|------------3------------------5-------------------------|--3-----|
  x3                                                        Last time.



Rythm guitar chords  Verse
e|-------------------------------|
B|-------------------------------|
G|--4-------4--------------------|
D|--4---5---4---7----------------|
A|--2---5---2---7----------------|
E|------3-------5----------------|

Rythm guitar chords Chorus 
e|-------------------------------|
B|-------------------------------|
G|---7---4-----------------------|
D|---7---4---7---5---------------|
A|---5---2---7---5---------------|
E|-----------5---3---------------|
Tap to rate this tab
# A B C D E F G H I J K L M N O P Q R S T U V W X Y Z