Takida - Never Alone Always Alone tab

Never Alone Always Alone Ė Takida



e|----------------|----------------|----------------|----------------|
B|----------------|----------------|----------------|----------------|
G|--0--2--3-------|--0--2--3--2--0-|-----0--2-------|-----0--2--0----|
D|----------------|----------------|--3-------------|--3-----------3-|
A|----------------|----------------|----------------|----------------|
E|-3--------------|-3--------------|-1--------------|-1--------------|X3

e|----------------|----------------|
B|----------------|----------------|
G|--0--0----------|--0--0--2-------|
D|--------4-------|----------------|
A|----------------|--5-------------|
E|--3-------------|----------------|

e|----------------|----------------|----------------|----------------|
B|----------------|----------------|----------------|----------------|
G|--0--2--3-------|--0--2--3--2--0-|-----0--2-------|-----0--2--0----|
D|----------------|----------------|--3-------------|--3-----------3-|
A|----------------|----------------|----------------|----------------|
E|-3--------------|-3--------------|-1--------------|-1--------------|X2

e|----------------|----------------|
B|----------------|----------------|
G|--0--0----------|--0--0--2-------|
D|--------4-------|----------------|
A|----------------|--5-------------|
E|--3-------------|----------------|


Gm          A#                      
I am never alone 
               F
Iím failing to turn
                  D
I will never miss home

I wanna get back again
Gm          A#                  
I am never alone
               C 
My colors will burn
       Dm              Gm              
Never alone, always alone


e|----------------|----------------|----------------|----------------|
B|----------------|----------------|----------------|----------------|
G|--0--2--3-------|--0--2--3--2--0-|-----0--2-------|-----0--2--0----|
D|----------------|----------------|--3-------------|--3-----------3-|
A|----------------|----------------|----------------|----------------|
E|-3--------------|-3--------------|-1--------------|-1--------------|X3

e|----------------|----------------|
B|----------------|----------------|
G|--0--0----------|--0--0--2-------|
D|--------4-------|----------------|
A|----------------|--5-------------|
E|--3-------------|----------------|


Gm          A#                       
I am never alone 
               F
Iím failing to turn
                  D
I will never miss home

I wanna get back again
Gm          A#                  
I am never alone
               C 
My colors will burn
      Dm              Gm             
Never alone, always alone

e|------------------------------------|
B|------------------------------------|
G|------------------------------------|
D|--3-5--1-3--0h1p0-------------------|
A|------------------3-5--1-3--0h1p0---|
E|---------------------------------1--|

F           D              Gm
I am never, I am always alone

e|------------------------------------|
B|------------------------------------|
G|------------------------------------|
D|--3-5--1-3--0h1p0-------------------|
A|------------------3-5--1-3--0h1p0---|
E|---------------------------------1--|

F                   Gm
I will never miss home


Solo: Gm | A# | F | D | Gm | A# | C | Dm | Gm |

e|----------------|----------------|----------------|----------------|
B|----------------|----------------|----------------|----------------|
G|--0--2--3-------|--0--2--3--2--0-|-----0--2-------|-----0--2--0----|
D|----------------|----------------|--3-------------|--3-----------3-|
A|----------------|----------------|----------------|----------------|
E|-3--------------|-3--------------|-1--------------|-1--------------|X2

e|----------------|----------------|----------------|------------------|
B|----------------|----------------|----------------|------------------|
G|--0--2--3-------|--0--2--3--2--0-|-----0--2-------|-----0--2--0-----0|
D|----------------|----------------|--3-------------|--3-----------3---|
A|----------------|----------------|----------------|------------------|
E|-3--------------|-3--------------|-1--------------|-1----------------|
Tap to rate this tab
 
# A B C D E F G H I J K L M N O P Q R S T U V W X Y Z