Song name
# A B C D E F G H I J K L M N O P Q R S T U V W X Y Z

Takida - Killed By Train tab

Well, this is my first tab. And it sounds good to me an' i hope it does to u ^^  PS. 
for not tabin' the whole song but i'm not THAT good :D

>Listen to the song and it'll easy to play.

Intro part
E------------------------------------------------------------------------------------------|E
B------------------------------------------------------------------------------------------|B
G--------5/6---3-----5/6-------------5/6--------5/6---8--6--8-----10/8----6----------------|G
D-----6-------------6-----4------6----------6-----------------------------------8----------|D
A------------------------------------------------------------------------------------------|A
E------------------------------------------------------------------------------------------|E

The second times he plays it the other guitar plays like this.

E-----------------------------------------------------------------------------------|
B-----------------------------------------------------------------------------------|
G-----------------------------------------------------------------------------------|
D--------------8----------4------------------4-----------------------8--------------|
A--------------8----------4------------------4-----------------------8--------------|
E--------------6----------2------------------6-----------------------6--------------|

>well this is it... u like it, or stop watch it.

// WeN^NberG
Tap to rate this tab
# A B C D E F G H I J K L M N O P Q R S T U V W X Y Z