Song name
# A B C D E F G H I J K L M N O P Q R S T U V W X Y Z

Takida - Curly Sue tab

I started to play this song and made this up

Standard tuning
------------6------------6-4-|
---4-3-4---------4-3-4-------|
---------5-------------5-----|
-----------------------------|
-3-------------3-------------|
-----------------------------|


------------6------------6-4-|
---4-3-4---------4-3-4-------|
---------5-------------5-----|
-----------------------------|
-----------------------------|
-4-------------4-------------|

With capo on 3
------------3------------3-1-|
---1-0-1---------1-0-1-------|
---------2-------------2-----|
-----------------------------|
-0-------------0-------------|
-----------------------------|


------------3------------3-1-|
---1-0-1---------1-0-1-------|
---------2-------------2-----|
-----------------------------|
-----------------------------|
-1-------------1-------------|
Tap to rate this tab
# A B C D E F G H I J K L M N O P Q R S T U V W X Y Z