Song name
# A B C D E F G H I J K L M N O P Q R S T U V W X Y Z

Takida - Poisoned tab

Takida - Poisoned

Tabbed by Jonas (jonis123@hotmail.com)

INTRO (0:00-0:16)
(just plink some at these tones, dont sure how many times. U need to lissen to the song)

e|---------------------------------------------------------|
B|---------------------------------------------------------|
G|---------------------------------------------------------|
D|---11-----------11---11-----11---11-----11------------11-|
A|-9----9-9-9-9-9----9----9-8----8----8-9----9-9-9-9--9----|
E|---------------------------------------------------------|

e|-------------------------------------|
B|-------------------------------------|
G|-------------------------------------|
D|-------------------------------------|
A|---9---------9-----11---------11-----|
E|-7---7-7-7-7--7-9-----9-9-9-9--------|repeat this 2 times

VERSE RIFF 1(0:16-0:30)
(Guitar plays quite the same riff as in intro)

e|---------------------------------------------------------|
B|---------------------------------------------------------|
G|---------------------------------------------------------|
D|---11-----------11---11-----11---11-----11------------11-|
A|-9----9-9-9-9-9----9----9-8----8----8-8----9-9-9-9--9----|
E|---------------------------------------------------------|
             Those summer nights, those summer nights in bed
e|-------------------------------------|
B|-------------------------------------|
G|-------------------------------------|
D|-------------------------------------|
A|---9---------9-----11---------11-----|
E|-7---7-7-7-7--7-9-----9-9-9-9--------|
    You were forced him to play

VERSE RIFF 2 (0:30-0:44)


e|--------------------------------------------------------------------------------------|
B|--------------------------------------------------------------------------------------|
G|--------------------------------------------------------------------------------------|
D|-11-11-11-11-11-11-11-11-11-----------------------------------------------------------|
A|-9--9--9--9--9--9--9--9--9---9-9-9-9-9-9--11-11-11-11-11------------------------------|
E|-----------------------------7-7-7-7-7-7--9--9--9--9--9-------------------------------|

                                       Continiue play 9/11 until Robban
.......................................screams and then beggin the Chorus


CHORUS

Use same riff in the verse riff 2. Lissen to the song to get the right.


For comments contact me at jonis123@hotmail.com
Tap to rate this tab
 
# A B C D E F G H I J K L M N O P Q R S T U V W X Y Z