Song name
# A B C D E F G H I J K L M N O P Q R S T U V W X Y Z

Takida - Tear It Up Again tab

Help us improve GuitareTab! Take a short survey!
                         Takida-Tear it up! 

 tabed by: Tony larsson , email: rock_boy90@hotmail.com

-Intro.

e|------------------------|
a|------------------------|
d|--2--222--2-------------|
g|--5--444--5-------------|
b|--5-------5-------------|
e|------------------------|


-2 Guitars.
-How will it ever work out fine? you tell me that you rather be..

e|----------------------------------|
a|--2/3--3/5--5/7---10-9-2-2/3------|
d|----------------------------------|
g|----------------------------------|
b|----------------------------------|
e|----------------------------------|

e|----------------|
a|--3--5--9-------|
d|--5--7--7-------|
g|--5--7--7-------|
b|----------------|
e|----------------|

-solo

e|------------------------------------|
a|------------------------------------|
d|------------------------------------|
g|------------------------------------|
b|-9^-9---9--11^--9--11---------------|
e|------9----------------9--11^--11---|

cuz you wish for, yeah you wish for

e|---------55--33-----|
a|--33333--77--55-----|
d|--55555--77--55-----|
g|--55555-------------|
b|--------------------|
e|--------------------|

how do you like it standin' there?

e|-111-111--3--555-555--3--111------|
a|-333-333--5--777-777--5--333------|
d|-333-333--5--777-777--5--333------|
g|----------------------------------|
b|----------------------------------|
e|----------------------------------|

second solo

e|-----------------------------------------------------------------------|
a|-----------------------------------------------------------------------|
d|-----------------------------------------------------------------------|
g|--8^-8-8^-6-4-6-9-12^-10^-10-8h10-6h8-4--4/14^-14/13-12-13-16-10-12-10-|
b|-----------------------------------------------------------------------|
e|-----------------------------------------------------------------------|

e|-------------------------------------------------------------|
a|-------------------------------------------------------------|
d|-------------------------------------------------------------|
g|-10h12--------10h12------------------------------------------|
b|------10-12^--------10-12^---12^----12-10---12^----12-10-8---|
e|---------------------------------10-------------10-----------|

how will it ever vork out fine? how will it ever work out fine?
you tell me that you rather be, how will it ever work out.

then this middleplay comes in:

e|-55xxxxxxxxxxxxxx--33xxxxxxxxxxxxxx--55xxxxxx-55xx-55xx-33xxxxxxxxxxxxxxx-3--|
a|-77xxxxxxxxxxxxxx--55xxxxxxxxxxxxxx--77xxxxxx-77xx-77xx-55xxxxxxxxxxxxxxx-5--|
d|-77xxxxxxxxxxxxxx--55xxxxxxxxxxxxxx--77xxxxxx-77xx-77xx-55xxxxxxxxxxxxxxx-5--|
g|-----------------------------------------------------------------------------|
b|-----------------------------------------------------------------------------|
e|-----------------------------------------------------------------------------|


then this part again, 

e|-111-111--3--555-555--3--111------|
a|-333-333--5--777-777--5--333------|
d|-333-333--5--777-777--5--333------|
g|----------------------------------|
b|----------------------------------|
e|----------------------------------|


and the outro goes almost the same , just a little different.

e|-111111111111--3--555555555555--3-|
a|-333333333333--5--777777555555--5-|
d|-333333333333--5--777777555555--5-|
g|----------------------------------|
b|----------------------------------|
e|----------------------------------|


/ slide

^ bend up

h hammer

x lift your fingers and just touch the strings
you can contact me: rock_boy90@hotmail.com
Related for Tear It Up Again tab