Guitaretab - guitar tabs
Song name
# A B C D E F G H I J K L M N O P Q R S T U V W X Y Z

Taking Back Sunday - Everything Must Go Basher tab

TAKING BACK SUNDAY
NEW SONG FROM UPCOMING ABLBUM
BASHER(EVERYTHING MUST GO)

Note* This is my first tab and I am tabbing it from a poor audio quality

video from youtube. I also tried to note as much of the lyrics as I could

understand but they are probably slightly wrong. So if you would please

email me with any questions other than the obvious,

(how bored was I?), or any criticism I would be grateful. AE5687@hotmail.com , thanks.
Adam Evans


STANDARD TUNING
Intro------?
  Note*(The Intro is similar to the chorus but I could not
           identify enough of it to be sure.)

1st VERSE

E |---------------------------------------------------------------|
B |------------------------------------------------6--------------|
G |---------5----------------5----------------8------8-5----------|
D |------8-----8---------6------6--------6--------------8-6-------|
A |----6---6-----------8---8----------4----4----------------------|
E |---------------------------------------------------------------|
         we found a house with a yard and moved all of my things

E |---------------------------------------------------------------|
B |------------------------------------------------6--------------|
G |---------5----------------5----------------8------8-5----------|
D |------8-----8---------6------6--------6--------------8-6-------|
A |----6---6-----------8---8----------4----4----------------------|
E |---------------------------------------------------------------|
                       and most of your things in...


E |---------------------------------------------------------------|
B |------------------------------------------------6--------------|
G |---------5----------------5----------------8------8-5----------|
D |------8-----8---------6------6--------6--------------8-6-------|
A |----6---6-----------8---8----------4----4----------------------|
E |---------------------------------------------------------------|
and honey I was proud of it... Yeah honey I was proud of


E |---------------------------------------------------------------|
B |------------------------------------------------6--------------|
G |---------5----------------5----------------8------8-5----------|
D |------8-----8---------6------6--------6--------------8-6-------|
A |----6---6-----------8---8----------4----4----------------------|
E |---------------------------------------------------------------|
            you...

CHORUS
(1st guitar)
E |---------------------------------------------------------------|
B |---------------------------------------------------------------|
G |----------------------66666666666666666------------------------|
D |--6666666666666666----66666666666666666------------------------|
A |--6666666666666666----44444444444444444------------------------|
E |--4444444444444444---------------------------------------------|
     guess/here's what we're gonna do when it's convenient
    but you don't have the sense, no you don't have the sense

(2nd guitar)
E |---------------------------------------------------------------|
B |---------------------------------------------------------------|
G |--------------(Indiscernible) ---------------------------------|
D |---------------------------------------------------------------|
A |---------------------------------------------------------------|
E |---------------------------------------------------------------|

(1st guitar)
E |---------------------------------------------------------------|
B |---------------------------------------------------------------|
G |-----------------------------6---------------------------------|
D |--33333333-----5555---6666---6---------------------------------|
A |--33333333-----5555---6666---4---------------------------------|
E |--11111111-----3333---4444-------------------------------------|
  to talk it through to dawn, instead you're walking through the door

(2nd guitar)
E |---------------------------------------------------------------|
B |---------------------------------------------------------------|
G |--10----------12--------13--------------17---------------------|
D |--x(X8)-------x-(x4)----x(x4)----------x---------------------|
A |--8-----------10--------11--------------15---------------------|
E |---------------------------------------------------------------|

2nd Verse

E |---------------------------------------------------------------|
B |------------------------------------------------6--------------|
G |---------5----------------5----------------8------8-5----------|
D |------8-----8---------6------6--------6--------------8-6-------|
A |----6---6-----------8---8----------4----4----------------------|
E |---------------------------------------------------------------|
         and the boxes in my head lay down cards in the shed


E |---------------------------------------------------------------|
B |------------------------------------------------6--------------|
G |---------5----------------5----------------8------8-5----------|
D |------8-----8---------6------6--------6--------------8-6-------|
A |----6---6-----------8---8----------4----4----------------------|
E |---------------------------------------------------------------|
       and it used to be we'd go to church with all of them there


E |---------------------------------------------------------------|
B |------------------------------------------------6--------------|
G |---------5----------------5----------------8------8-5----------|
D |------8-----8---------6------6--------6--------------8-6-------|
A |----6---6-----------8---8----------4----4----------------------|
E |---------------------------------------------------------------|
     Competent in playing with nothing much experience
    while the cards from the corner store lay on hardwood floor

E |---------------------------------------------------------------|
B |------------------------------------------------6--------------|
G |---------5----------------5----------------8------8-5----------|
D |------8-----8---------6------6--------6--------------8-6-------|
A |----6---6-----------8---8----------4----4----------------------|
E |---------------------------------------------------------------|
      I've been fooled too fast before, before, before...

CHORUS x2
(1st guitar)
E |---------------------------------------------------------------|
B |---------------------------------------------------------------|
G |----------------------66666666666666666------------------------|
D |--6666666666666666----66666666666666666------------------------|
A |--6666666666666666----44444444444444444------------------------|
E |--4444444444444444---------------------------------------------|
         guess/here's what we're gonna do when it's convenient
        but you don't have the sense no you don't have the sense

(2nd guitar)
E |---------------------------------------------------------------|
B |---------------------------------------------------------------|
G |----------- (Indiscernible) -----------------------------------|
D |---------------------------------------------------------------|
A |---------------------------------------------------------------|
E |---------------------------------------------------------------|


(1st guitar)
E |---------------------------------------------------------------|
B |---------------------------------------------------------------|
G |-----------------------------6---------------------------------|
D |--33333333-----5555---6666---6---------------------------------|
A |--33333333-----5555---6666---4---------------------------------|
E |--11111111-----3333---4444-------------------------------------|
    to talk it through to dawn, instead you're walking through the door
[ Tab from: http://www.guitaretab.com/t/taking-back-sunday/116843.html ]
(2nd guitar)
E |---------------------------------------------------------------|
B |---------------------------------------------------------------|
G |--10----------12--------13--------------17---------------------|
D |--x(X8)-------x-(x4)----x(x4)----------x---------------------|
A |--8-----------10--------11--------------15---------------------|
E |---------------------------------------------------------------|


Breakdown
         Note* (I have no idea what he is saying in the breakdown)

E |---------------------------------------------------------------|
B |---------------------------------------------------------------|
G |--------5--------5----------5----------5---------5-------88----|
D |----8-----8---8----8----6-----6----6-----6---6-----6--6--------|
A |--6---6-----6--6------8---8------8--8------4---4-----4--4------|
E |---------------------------------------------------------------|

E |---------------------------------------------------------------|
B |---------------------------------------------------------------|
G |-----5---------5-----------------------------------------------|
D |--6----6---6-----6---------------------------------------------|
A |4--4-----4---4-------------------------------------------------|
E |---------------------------------------------------------------|

E |---------------------------------------------------------------|
B |---------------------------------------------------------------|
G |--------5--------5----------5----------5---------8-------------|
D |----8-----8---8----8----6-----6----6-----6---6-----------------|
A |--6---6-----6--6------8---8------8--8------4---4---------------|
E |---------------------------------------------------------------|


E |---------------------------------------------------------------|
B |---------------------------------------------------------------|
G |--5---------888------------------------------------------------|
D |----6----6-----------------------------------------------------|
A |-------4-------------------------------------------------------|
E |---------------------------------------------------------------|

(1st guitar)
E |---------------------------------------------------------------|
B |---------------------------------------------------------------|
G |----------------------66666666666666666------------------------|
D |--6666666666666666----66666666666666666------------------------|
A |--6666666666666666----44444444444444444------------------------|
E |--4444444444444444---------------------------------------------|
        (Indiscernible)

(2nd guitar)
E |---------------------------------------------------------------|
B |---------------------------------------------------------------|
G |----------- (Indiscernible) -----------------------------------|
D |---------------------------------------------------------------|
A |---------------------------------------------------------------|
E |---------------------------------------------------------------|
        (Indiscernible)


E |---------------------------------------------------------------|
B |---------------------------------------------------------------|
G |-----------------------------6---------------------------------|
D |--33333333-----5555---6666---6---------------------------------|
A |--33333333-----5555---6666---4---------------------------------|
E |--11111111-----3333---4444-------------------------------------|
        (Indiscernible)

 (2nd guitar)
E |---------------------------------------------------------------|
B |---------------------------------------------------------------|
G |--10----------12--------13--------------17---------------------|
D |--x(X8)-------x-(x4)----x(x4)----------x---------------------|
A |--8-----------10--------11--------------15---------------------|
E |---------------------------------------------------------------|
        (Indiscernible)

CHORUS x2
(1st guitar)
E |---------------------------------------------------------------|
B |---------------------------------------------------------------|
G |----------------------66666666666666666------------------------|
D |--6666666666666666----66666666666666666------------------------|
A |--6666666666666666----44444444444444444------------------------|
E |--4444444444444444---------------------------------------------|
         guess/here's what we're gonna do when it's convenient
        but you don't have the sense no you don't have the sense

(2nd guitar)
E |---------------------------------------------------------------|
B |---------------------------------------------------------------|
G |----------- (Indiscernible) -----------------------------------|
D |---------------------------------------------------------------|
A |---------------------------------------------------------------|
E |---------------------------------------------------------------|


(1st guitar)
E |---------------------------------------------------------------|
B |---------------------------------------------------------------|
G |-----------------------------6---------------------------------|
D |--33333333-----5555---6666---6---------------------------------|
A |--33333333-----5555---6666---4---------------------------------|
E |--11111111-----3333---4444-------------------------------------|
    to talk it through to dawn, instead you're walking through the door

(2nd guitar)
E |---------------------------------------------------------------|
B |---------------------------------------------------------------|
G |--10----------12--------13--------------17---------------------|
D |--x(X8)-------x-(x4)----x(x4)----------x---------------------|
A |--8-----------10--------11--------------15---------------------|
E |---------------------------------------------------------------|


CHORUS/Outro-End
    Note*(they play the chorus one last time but with no words and guitar#2

(Matt Fazzi) is doing a cool tapping lead which I couldnt hear well so I

putt this in instead, as filler, you can make it whatever you like I guess.)

(X5)
E |---------------------------------------------------------------|
B |-13-911-13-9-11--13-9----------------------------------------|
G |-------------------------12-8-10--12-8-10--12-8----------------| (X5)
D |---------------------------------------------------------------|
A |---------------------------------------------------------------|
E |---------------------------------------------------------------|

(X1)
E |---------------------------------------------------------------|
B |-13-911-13-9-11--13-9----------------------------------------|
G |-------------------------12-8-10--13-8-10--12-8----------------|
D |-------------------------------------------------11------------| (X1)
A |---------------------------------------------------------------|
E |---------------------------------------------------------------|

Thanks for checking out this tab. I tried very hard to listen to the song on

youtube but its audio quality was very poor. If you have any questions or

comments of criticism please email me at ae5687@hotmail.com . Here are the

(completely) incomplete lyrics as well.   Thank you.


BASHER (Everything Must Go)-Lyrics

(VERSE)
we found a house with a yard
and moved all of my things
and most of your things in
and honey I was proud of it
yeah honey I was proud of you...

(CHORUS)
guess/here's what we're gonna do when it's convenient
but you don't have the sense
no you don't have the sense
to talk it through to dawn
instead you're walking through the door

(VERSE)
and the boxes in my head
lay down cards in the shed
and it used to be
we'd go to church with all of them there
competent in playing with nothing much experience
while the cards from the corner store lay on hardwood floor
I've been fooled too fast before, before, before...

(CHORUS)
guess/here's what we're gonna do when it's convenient
but you don't have the sense
no you don't have the sense
to talk it through to dawn
instead you're walking through the door

(CHORUS)
guess/here's what we're gonna do when it's convenient
but you don't have the sense
no you don't have the sense
to talk it through to dawn
instead you're walking through the door

(Breakdown?)

(CHORUS)
(CHORUS)
Cool solo/end
Related for Everything Must Go Basher tab