Guitaretab - guitar tabs
Song name
# A B C D E F G H I J K L M N O P Q R S T U V W X Y Z

Taking Back Sunday - Falling For You tab

Song:Falling for You
Album:Various Songs,Soundtrack for A Generation??
Artist:Taking Back Sunday,Something Corporate,Student Rick??
Date Tabbed:December,2006
Guitar Tabber:Ryan Manongdo/16/m/Montalban Rizal(Philippines)
              no_falter0x@yahoo.com(Friendster&YM)
              09229015724(Sun Cell)

 
  Geee...1st,I thought this song is revived only by TBS.But I want to inform you
that the FALLING FOR YOU is originated by the band called STUDENT RICK!!For your 
questions or suggestions,just PM or Text me!!Please Rate...

Gtr.Legends:
/\ - slide
x  - dead string
.  - palm muting
~  - let it ring
p  - pull-off

Gtr.Tuning:Standard(Normal)

Verse 1:This drowning sorrow...
e|---------------------------------------------|
B|---------------------------------------------|
G|---------------------------------------------|
D|-6-6666--8888-10101010-9999-------6~~----2---|
A|-6-6666--6666--8-8-8-8-7777-------6~~----2---|
E|-4-4444---------------------12/2--4~~----0---|
     ....  ....  . . . . ....              .


Pre-verse 2:
Gtr.1:
e|---------------------------------------------------------|
B|---------------------------------------------------------|
G|---------------------------------------------------------|
D|-6666-8888-10101010-9999--66666-8888-10101010-9999--6~---|
A|-6666-6666--8-8-8-8-7777--66666-6666--8-8-8-8-7777--6~---|
E|-4444---------------------44444---------------------4~---|


Gtr.2
e|-----------------------------------------------------------------------------|
B|-----------------------------------------------------------------------9~~---|
G|-888888888-10101010-1212-13-15-131313-1212-13-15-17171717-1212-1313-15-------| Timing...
D|-xxxxxxxxx--x-x-x-x-xxxx-xx-xx-xxxxxx-xxxx-xx-xx-xxxxxxxx-xxxx-xxxx-xx-------|
A|-666666666--8-8-8-8-1010-11-13-111111-1010-11-13-15151515-1010-1111-13-------|
E|-----------------------------------------------------------------------------|


Verse 2:The city air chokes...
e|-----------------------------------------|
B|-----------------------------------------|
G|----8----8---8-----10----10---10---------| I'm not sure in this prt.
D|-------------------------------------2---| 
A|-66---66---6----88----88----8--------2---|
E|-------------------------------------0---|
   .. . .. . . . ..  .  .. .  .  .     .

Pre-Chorus:Are you,going to...
e|-------------------------------------------------|
B|-------------------------------------------------|
G|-------------------------------------------------|
D|-66--88-10101010-99999---66--88-10101010-99999---|
A|-66--66--8-8-8-8-77777---66--66--8-8-8-8-77777---|
E|-44----------------------44----------------------|
   ..  ..                  ..  ..


Chorus:Falling for you...
e|-------------------------------------------------------------|
B|-------------------------------------------------------------|
G|-------------------------------------------------------------| 
D|-66666--33333--66666-8888---66666--33333--6666-8888--66666---|
A|-66666--33333--44444-6666---66666--33333--4444-6666--66666---|
E|-44444--11111---------------44444--11111-------------44444---|
                                                           .

Pre-verse 3:
Gtr.1:
e|---------------------------------------------------------|
B|---------------------------------------------------------|
G|---------------------------------------------------------|
D|-6666-8888-10101010-9999--66666-8888-10101010-9999--6~---|
A|-6666-6666--8-8-8-8-7777--66666-6666--8-8-8-8-7777--6~---|
E|-4444---------------------44444---------------------4~---|
[ Tab from: http://www.guitaretab.com/t/taking-back-sunday/138286.html ]
Gtr.2
e|-----------------------------------------------------------------------------|
B|-----------------------------------------------------------------------9~~---|
G|-888888888-10101010-1212-13-15-131313-1212-13-15-17171717-1212-1313-15-------| Timing...
D|-xxxxxxxxx--x-x-x-x-xxxx-xx-xx-xxxxxx-xxxx-xx-xx-xxxxxxxx-xxxx-xxxx-xx-------|
A|-666666666--8-8-8-8-1010-11-13-111111-1010-11-13-15151515-1010-1111-13-------|
E|-----------------------------------------------------------------------------|

Verse 3:These empty feelings...
e|-------------------------------------------|
B|-9~~~~-----9p8-9p8-9p8-9p8-9p8-9p8-9p8-----|
G|-------------------------------------------|
D|---------------------------------------2---|
A|---------------------------------------2---|
E|---------------------------------------0---|
                                         .

Repeat Pre-Chorus:
Repeat Chorus:

Bridge prt.1:    I'm dying to explain....  I'm dying to explain... 
e|------------------------------------------------------------------
B|------------------------------------------------------------------
G|------------------------------------------------------------------
D|-66666-6-5-3---333333--6666-8888-5555----33333--6666-8888--5555---
A|-66666-6-5-3---333333--4444-6666-5555----33333--4444-6666--5555---
E|-44444-4-3-1---111111------------3333----11111-------------3333---
   .....                           ....    .....  .... ....  ....

There's so much...
e|--------------------------------------------------------|
B|--------------------------------------------------------|
G|--------------------------------------------------------|
D|-33----55/6666-8888--55555---33---66666--88888--55555---|
A|-33----33/4444-6666--55555---33---44444--66666--55555---|
E|-11------------------33333---11-----------------33333---|
   ..                          ..


Pre-Outro Chorus:
Gtr.1:
e|---------------------------------------------------------|
B|---------------------------------------------------------|
G|---------------------------------------------------------|
D|-6666-8888-10101010-9999--66666-8888-10101010-9999--6~---|
A|-6666-6666--8-8-8-8-7777--66666-6666--8-8-8-8-7777--6~---|
E|-4444---------------------44444---------------------4~---|

Gtr.2
e|-----------------------------------------------------------------------------|
B|-----------------------------------------------------------------------9~~---|
G|-888888888-10101010-1212-13-15-131313-1212-13-15-17171717-1212-1313-15-------| Timing...
D|-xxxxxxxxx--x-x-x-x-xxxx-xx-xx-xxxxxx-xxxx-xx-xx-xxxxxxxx-xxxx-xxxx-xx-------|
A|-666666666--8-8-8-8-1010-11-13-111111-1010-11-13-15151515-1010-1111-13-------|
E|-----------------------------------------------------------------------------|

Outro Chorus:Falling for you...
e|----------------------------------------------------------------------------------------|
B|----------------------------------------------------------------------------------------|
G|----------------------------------------------------------------------------------------|
D|-66666--33333--6666--9999---66666--33333--6666-8888--2-222-4-444--2-222-4-444--5/6--6---|
A|-66666--33333--4444--7777---66666--33333--4444-6666--2-222-4-444--2-222-4-444--3/4--6---|
E|-44444--11111---------------44444--11111-------------0-000-2-222--0-000-2-222-------4---|
                                                         ...   ...    ...   ...

End...

Falling for You Lyrics:

Verse 1:
this drowning sorrow is shaking me
more than it ever has before
the road signs reading bitter end
leave me suspect of a crime

Verse 2:
the city air chokes me today
more than it ever had before
iím nervous to feel deserved
by these street signs anymore

Pre-Chorus:
are you
going to
be waiting up when i get home
weíll stay up all night
getting drunk and watching sunsets on our porch

Chorus:
falling for you
falling for you
i fell for you
(im falling)
falling for you
(im falling)
falling for you
i fell for you

Verse 3:
these empty feelings question me
of who i think iíve become
mind is ticking life away
asking if you are the one

Repeat Pre-Chorus:
Repeat Chorus:

Bridge:
iím dying to explain my heart
to you now
iím dying to explain my heart
to you now
thereís so much on my mind itís tearing me apart
thereís so much on my mind itís tearing me apart 

falling for you
falling for you
i fell for you
(im falling)
falling for you
(im falling)
falling for you
i fell for you

Related for Falling For You tab